Seether - Diseased Chords & Tabs

 

Diseased Chords & Tabs

Seether Chords & Tabs

Version: 1 Type: Tab 0 ratings
1 star 2 stars 3 stars 4 stars 5 stars
comments

Diseased Tab

   
----------------------------------------------------------------------------
			     Diseased - Seether
----------------------------------------------------------------------------
Tabbed by: Naterack

Tuning: (Eb, Ab, Db, Gb, Bb, Eb,)

e|--13--13-13-13--12--12-12-12--10--10-10-10--12--12-12-12--9--9-9-9/10-----|
B|--------------------------------------------------------------------------|
G|--------------------------------------------------------------------------|
D|--------------------------------------------------------------------------|
A|--------------------------------------------------------------------------|
E|--------------------------------------------------------------------------|
[ Tab from: http://www.guitartabs.cc/tabs/s/seether/diseased_tab.html ]
e|--------------------------------------------------------------------------|
B|--------------------------------------------------------------------------|
G|--------------------------------------------------------------------------|
D|--3-3---3---3-3---3-3---3-3---3-3---3-3-----------------------------------|
A|--3-3---3---3-3---3-3---3-3---3-3---3-3-----------------------------------|
E|--1-1---1---1-1---1-1---1-1---1-1---1-1-----------------------------------|
pm..........................................................
e|--------------------------------------------------------------------------|
B|--------------------------------------------------------------------------|
G|---7-7-7-7--5-5--8-8------------------------------------------------------|
D|---7-7-7-7--5-5--8-8------------------------------------------------------|
A|---5-5-5-5--3-3--6-6------------------------------------------------------|
E|--------------------------------------------------------------------------|

e|---------------------------------------------------------------------------|
B|---------------------------------------------------------------------------|
G|---7--7/9-10--9--7---------------------------------------------------------|
D|---x--x/x--x--x--x---------------------------------------------------------|
A|---5--5/7--8--7--5---------------------------------------------------------|
E|---------------------------------------------------------------------------|
Comments