Seether - Dazed And Abused Chords & Tabs

 

Dazed And Abused Chords & Tabs

Seether Chords & Tabs

Version: 1 Type: Tab 0 ratings
1 star 2 stars 3 stars 4 stars 5 stars
comments

Dazed And Abused Tab

****************************************************
*** OFFICIAL TABLATURE SUPPLIED BY SARON GAS FOR ***
***     ABSOLUTE TABS  http://www.tabs.co.za     ***
****************************************************

Song Title:	Dazed and Abused
Album:	Fragile
Artist:	Saron Gas (Now called Seether)
URL:		http://www.seether.com

Tuning:		EADGBE

Verse:
		B	|----------------------------------------------|
		G	|----------------------------------------------|
		D	|--------0---------0---------------------------|
		A	|-----1-----0---0-----0------------------------|
		E	|--3----------1--------------------------------|
[ Tab from: http://www.guitartabs.cc/tabs/s/seether/dazed_and_abused_tab.html ]
Chorus:
		B	|----------------------------------------------|
		G	|--------0---------0---------------------------|
		D	|-----1-----0---0-----0------------------------|
		A	|--3----------1--------------------------------|
		E	|----------------------------------------------|

End:
		B	|----------------------------------------------|
		G	|----------------------------------------------|
		D	|----------------------------------------------|
		A	|--1-------------------------------------------|
		E	|--3-------------------------------------------|

---------------------------
 This file passed through:
       Absolute Tabs
   http://www.tabs.co.za
---------------------------
Comments