Seether - Cigarettes Chords & Tabs

 

Cigarettes Chords & Tabs

Seether Chords & Tabs

Version: 2 Type: Tab 0 ratings
1 star 2 stars 3 stars 4 stars 5 stars
comments

Cigarettes Tab

   
Band - Seether
Song - Cigarettes

Tuning: eb Bb Gb Db Ab eb

eb|-------------------|
Bb|-------------------|
Gb|---3-3h4-------3h4-|
Db|-5---------3-3-----| x4(acoustic)
Ab|-5---------3-3-----|
Eb|-3-------0-1-1-----|

eb|-------------------|
Bb|-------------------|
Gb|---3-3h4-------3h4-|
Db|-5---------3-3-----| x4(dist.)
Ab|-5---------3-3-----|
Eb|-3-------0-1-1-----|

                   (Guitar 1)
eb|--------------------|-------------------|
Bb|--------------------|-------------------|
Gb|---3-3h4-------3h4--|---3-3h4-------3h4-|
Db|-5---------3-3------|-5---------3-3-----| x2
Ab|-5---------3-3------|-5---------3-3-----|
Eb|-3-------0-1-1------|-3-------0-1-1-----|
  |                                        |
  |                (Guitar 2)              |
eb|-------------------------------7-7-7----|
Bb|-------------------------------------8~-|
Gb|-4-4-4-2~-0-----------------------------|
Db|------------3-5-7b-5--5p3p0~------------|
Ab|----------------------------------------|
Eb|----------------------------------------|

eb|-------------------|
Bb|-------------------|
Gb|---3-3h4-------3h4-|
Db|-5---------3-3-----| x8
Ab|-5---------3-3-----|
Eb|-3-------0-1-1-----|

eb|------------|
Bb|------------|
Gb|-5-5-5--3-3-|
Db|-5-5-5--3-3-| x4
Ab|-3-3-3--1-1-|
Eb|------------|

eb|-------------------|
Bb|-------------------|
Gb|---3-3h4-------3h4-|
Db|-5---------3-3-----| x4 (dist.)
Ab|-5---------3-3-----|
Eb|-3-------0-1-1-----|
[ Tab from: http://www.guitartabs.cc/tabs/s/seether/cigarettes_tab_ver_2.html ]
eb|-------------------|
Bb|-------------------|
Gb|---3-3h4-------3h4-|
Db|-5---------3-3-----| x8
Ab|-5---------3-3-----|
Eb|-3-------0-1-1-----|

eb|------------|
Bb|------------|
Gb|-5-5-5--3-3-|
Db|-5-5-5--3-3-| x4
Ab|-3-3-3--1-1-|
Eb|------------|

eb|-------------------|
Bb|-------------------|
Gb|---3-3h4-------3h4-|
Db|-5---------3-3-----| x4 (dist.)
Ab|-5---------3-3-----|
Eb|-3-------0-1-1-----|

       (Guitar 1)
eb|-------------------|
Bb|-------------------|
Gb|---3-3h4-------3h4-|
Db|-5---------3-3-----| x16
Ab|-5---------3-3-----|
Eb|-3-------0-1-1-----|
  |
  |                      (Guitar 2)
eb|-------------------------------7-7-7-------------------|
Bb|-------------------------------------8~----------------|
Gb|-4-4-4-2~-0-----------------------------7-7-7s9-9-9s10-|
Db|------------3-5-7b-5--5p3p0~---------------------------|
Ab|-------------------------------------------------------|
Eb|-------------------------------------------------------|

eb|-------------------------------------------------------|
Bb|-------------------------------------------------------|
Gb|10-10-10s12-12s10-10-10s9-9-9s10-10-10-10s7-7~--7-5-4~-|
Db|-------------------------------------------------------|
Ab|-------------------------------------------------------|
Eb|-------------------------------------------------------|

eb|--------------| 
Bb|--------------| 
Gb|--------------| 
Db|-----5-------3| 
Ab|---5-------3--| 
Eb|-3-----0-1----| 

Ending:
eb|----|
Bb|----|
Gb|----|
Db|-5~-|
Ab|-5~-|
Eb|-3~-|
Comments