Seether - Burrito Chords & Tabs

 

Burrito Chords & Tabs

Seether Chords & Tabs

Version: 1 Type: Tab 0 ratings
1 star 2 stars 3 stars 4 stars 5 stars
comments

Burrito Tab

SEETHER
BURRITO
KARMA AND EFFECT
2005

Tuning: Drop D Tuned Down 1/2 Step (Db)

INTRO

eb------------------------------------------------|
Bb------------------------------------------------|
Gb------------7/5--------7/10---------------------|
Db--0-0--0--0-0---0--0-0-0---0--0-0-0--0-6-6-6-6--|
Ab--0-0--0--0-5/3-0--0-0-5/8-0--0-0-0--0-6-6-6-6--|
Db--0-0--0--0-0---0--0-0-0---0--0-0-0--0-6-6-6-6--|

eb------------------------------------------------|
Bb------------------------------------------------|
Gb------------7/5--------7/10----------------7/9--|
Db--0-0--0--0-0---0--0-0-0---0--0-0-0--0-6-6------|
Ab--0-0--0--0-5/3-0--0-0-5/8-0--0-0-0--0-6-6-5/6--|
Db--0-0--0--0-0---0--0-0-0---0--0-0-0--0-6-6------|

VERSE

eb--------------------------------------------|
Bb--------------------------------------------|
Gb-----------------------------10-------10----|
Db-------8-7--5-----5--7/8--------8--------8--|
Ab---------------8----------------------------|
Db--0--0--------------------0--------0--------|

eb-----------------------------------------------------|
Bb-----------------------------------------------------|
Gb-----------------------------10-------10----10--12~--|
Db-------8-7--5-----5--7/8--------8--------8-----------|
Ab---------------8-------------------------------------|
Db--0--0--------------------0--------0-----------------|

PRE CHORUS

"I can't believe in..."

Guitar 1
[ Tab from: http://www.guitartabs.cc/tabs/s/seether/burrito_tab.html ]
eb---------------------------------------------------|
Bb---------------------------------------------------|
Gb---------------------------------------------------|
Db--10-10-10-10-10-10-10-10--0--0--0--0--0--0--0--0--|
Ab--8--8--8--8--8--8--8--8---0--0--0--0--0--0--0--0--|
Db--8--8--8--8--8--8--8--8---0--0--0--0--0--0--0--0--|

Guitar 2

eb--------------------------------------------------------------------|
Bb--------------------------------------------------------------------|
Gb---------------------------------------------------10-12-12^12-10~--|
Db---------------------------------------12--12---12------------------|
Ab---------------------------5~-5/12~-12/-----------------------------|
Db--------------------------------------------------------------------|

CHORUS

"Save Yourself..."

eb------------------------------------------------------------------|
Bb------------------------------------------------------------------|
Gb---------12-11-7----------12-11-14---------12-11-7----------------|
Db--0--0-0-0--0--0---0--0-0-0--0--0---0--0-0-0--0--0---10-10-10-10--|
Ab--0--0-0-10-9--5---0--0-0-10-9--12--0--0-0-10-9--5---8--8--8--8---|
Db--0--0-0-0--0--0---0--0-0-0--0--0---0--0-0-0--0--0---8--8--8--8---|

VERSE

PRE CHORUS

CHORUS

INTERLUDE

eb--------------------------|
Bb--------------------------|
Gb--------------------------|
Db--0-0--0--0-0--0--7-7-7/--|
Ab--0-0--0--0-0--0----------|
Db--0-0--0--0-0--0----------|

INTRO

PRE CHORUS

CHORUS

OUTRO

eb----------------------------------------|
Bb----------------------------------------|
Gb----------------------------------------|
Db--0-0-0-0-0--6p0--0--0-0-0-0-0--6p0--0--|
Ab--0-0-0-0-0--6p0--0--0-0-0-0-0--6p0--0--|
Db--0-0-0-0-0--6p0--0--0-0-0-0-0--6p0--0--|

END
Comments