Seether - Broken Chords & Tabs

 

Broken Chords & Tabs

Seether Chords & Tabs

Version: 9 Type: Tab 0 ratings
1 star 2 stars 3 stars 4 stars 5 stars
comments

Broken Tab

   
-------------------------------------------------------------------------------
Broken - Seether feat. Amy Lee
-------------------------------------------------------------------------------
Tabbed by:TheFox
Email:decor79@t-online.de

Bm  113321
F#  244322
G#  466544
H   224442
B4  113341

    H            |                |    H              |
e|-1-2------2-2---------2------------1-2------2-2----------2----------------|
B|--------0---------------2-----------------0----------------2--------------|
G|-------------------4------4---4-----------------------4------4---4--------|
D|-1----1----------4----------4------1----1-----------4----------4----------|
A|------------2---------------------------------2---------------------------|
E|--------------------------------------------------------------------------|

    H	  |                |                 |
e|-1-2------2-2----------2-----------------------------------2--------------|
B|--------0----------------2--------------4--------------------2------------|
G|--------------------4------4----------6---6-------------4------4----------|
D|-1----1-----------4-----------------6-------6---------4----------4--------|
A|------------2---------------------4-----------4--\--2--------------2------|
E|--------------------------------------------------------------------------|
[ Tab from: http://www.guitartabs.cc/tabs/s/seether/broken_tab_ver_9.html ]
I wanted u to know i love the way you laugh.
I wannna hold u high and steal your pain away.
Bm	     F#	        Bm         F#
I keep your photograph I know it serves me well.
Bm      F#              G#         F#
I wanna hold u high and steal your pain.


           H   B4          H   B4
cause im broken when im open.
            H    B4         F#      Bm
And i dont feel like im strong enough.
           H    B4          H    B4
cause im broken when im lonesome.
            H    B4         F#      Bm 
And i dont feel light when youre gone.


the worst is over now and we can breathe again
i wanna hold u high and steal your pain
there's so much left to learn & no one left to fight
i wanna hold u high & steal ur pain


'cause im broken when im open
and i dont feel like i am strong enough 
'cause im broken when im lonesome
and i dont feel right when you're gone away 
'cause im broken when im open
and i dont feel like i am strong enough
'cause im broken when im lonesome
and i dont feel light when you're gone away


| \  slide down
| H  hammer-on
| p  pull-off
| ~  vibrato
=============================================================================
Comments