Seether - Broken Chords & Tabs

 

Broken Chords & Tabs

Seether Chords & Tabs

Version: 8 Type: Tab 0 ratings
1 star 2 stars 3 stars 4 stars 5 stars
comments

Broken Tab

Seether- Pepsi Smash Broken solo

Tabbed by: Tyler Greig (dbzrage3k)
E-mail: gtheleadguitarist@hotmail.com

This is the solo Pat played on Pepsi Smash. It also works if
you want to play the instrumental break on the regular track 
featuring Amy Lee. It's not very hard, so have some fun with it.

This is tabbed in drop d, but the rest of the song is drop Db, 
so you may have to move everything down 1 fret.

e|-14-13----14-13----14-13-14-13-11-16-14-13-11-13----|
B|-------14-------14----------------------------------|
G|----------------------------------------------------|
D|----------------------------------------------------|
A|----------------------------------------------------|
D|----------------------------------------------------|
[ Tab from: http://www.guitartabs.cc/tabs/s/seether/broken_tab_ver_8.html ]
e|-14-13----14-13----14-13-14-13-11-16-14-13-11-13----|
B|-------14-------14----------------------------------|
G|----------------------------------------------------|
D|----------------------------------------------------|
A|----------------------------------------------------|
D|----------------------------------------------------|

e|-14-13----14-13----14-13-14-13-11-16-14-13-11-13----|
B|-------14-------14----------------------------------|
G|----------------------------------------------------|
D|----------------------------------------------------|
A|----------------------------------------------------|
D|----------------------------------------------------|

e|-14-13----14-13-------------------|
B|-------14-------14-16v~-----------|
G|----------------------------------|
D|----------------------------------|
A|----------------------------------|
D|----------------------------------|
Comments