Seether - Broken Chords & Tabs

 

Broken Chords & Tabs

Seether Chords & Tabs

Version: 6 Type: Tab 0 ratings
1 star 2 stars 3 stars 4 stars 5 stars
comments

Broken Tab

   
Artist:	Seether
Song:	Broken
Tabber:	ultimate_crow

This is the way i play the song it sounds good when u play along with the song
I dont think the last part of the Chords is right but thats what it sounds like Enjoy.
Tunning: half step down (Eb Ab Db Gb Bb Eb)

Intro
Eb-2h3-----3-3-----3-----3--2h3-----3-3-----3-----3--2h3-----3-3-----3-----3--|
Bb-----0---------0---0----------0---------0---0----------0---------0---0------|
Gb-------0-----0-------0----------0-----0-------0----------0-----0-------0----|
Db----------------------------------------------------------------------------|
Ab----------------------------------------------------------------------------|
Eb-0------------------------0------------------------0------------------------|

Eb-0h2-----3p2-0h2-----2-3p2--------|
Bb-------0-----------0-------0------|
Gb-----0-----------0-----------0----|
Db-0-----------0--------------------|
Ab----------------------------------|
Eb----------------------------------|

Chords played through out most of the song
Eb---00----3--3-33-33----00----3--3-33-33----00----3--3-33-33------|
Bb---00----3--3-33-33----00----3--3-33-33----00----3--3-33-33------|
Gb---00----0--0-00-00----00-0--0--0-00-00----00-0--0--0-00-00------|
Db---22-2--2--2-22-22----22-2--2--2-22-22----22-2--2--2-22-22------|
Ab---22-2--3--3-33-33----22-2--3--3-33-33----22-2--3--3-33-33------|
Eb-0-00-0--0--0-00-00--0-00-0--0--0-00-00--0-00-0--0--0-00-00------|

Eb-0h2000-0h200000---------------------|
Bb-3--333-3--33333---------------------|
Gb-2--222-2--22222---------------------|
Db-------------------------------------|
Ab-------------------------------------|
Eb-------------------------------------|
[ Tab from: http://www.guitartabs.cc/tabs/s/seether/broken_tab_ver_6.html ]
Chorus
Eb-33333--0-00000--33333--0-00000--33333--0-00000--33333--0-0000-------|
Bb-33333--0-00000--33333--0-00000--33333--0-00000--33333--0-0000-------|
Gb-00000--0-00000--00000--0-00000--00000--0-00000--00000--0-0000-------|
Db-22222--2-22222--22222--2-22222--22222--2-22222--00000--2-2222-------|
Ab-33333--2-22222--33333--2-22222--33333--2-22222--22222--2-2222-------|
Eb-00000--0-00000--00000--0-00000--00000--0-00000--33333--0-0000-------|

Eb-33333--0-00000--33333--0-00000--33333--0-00000--33333--0--------|
Bb-33333--0-00000--33333--0-00000--33333--0-00000--33333--0--------|
Gb-00000--0-00000--00000--0-00000--00000--0-00000--00000--0--------|
Db-22222--2-22222--22222--2-22222--22222--2-22222--00000--2--------|
Ab-33333--2-22222--33333--2-22222--33333--2-22222--22222--2--------|
Eb-00000--0-00000--00000--0-00000--00000--0-00000--33333--0--------|

Solo
Eb------------------------------0-----|
Bb----------------------------0---0---|
Gb------------------------------------|
Db-------0-2--2/5-4-4\2-4\2-2---------|
Ab---0-2------------------------------|
Eb-0----------------------------------|

Eb------------------------------------------|
Bb------------------------------------------|
Gb----------------------------7-5-4-2-4-4-4-|
Db-------0-2--2/5-4-4\2-4\2-7---------------|
Ab---0-2------------------------------------|
Eb-0----------------------------------------|

Eb----------------------------------0--|
Bb--------------------------------0----|
Gb-------------------------------------|
Db-------0-2--2/5-4-4\2-4\2-7-5-2------|
Ab---0-2-------------------------------|
Eb-0-----------------------------------|

Eb------------------------------------------|
Bb------------------------------------------|
Gb----------------------------7-5-4-2-4-4-4-|
Db-------0-2--2/5-4-4\2-4\2-7---------------|
Ab---0-2------------------------------------|
Eb-0----------------------------------------|

Outro
im not sure if this is correct but it sounds good
Eb-12-7----3--12-7--14-10-5--12-7--12-7----3--12-7--14-10-5--12-7---12-|
Bb-------3-------------------------------3--------------------------12-|
Gb------------------------------------------------------------------12-|
Db---------------------------------------------------------------------|
Ab---------------------------------------------------------------------|
Eb---------------------------------------------------------------------|

Intro+Chords  	3x
Chorus        	1x
Intro+chords  	3x
Chorus        	1x
solo  	      	1x (during solo intro and chords played 2x)
Chorus 		1x
Outro+Chords	1x
Comments