Seether - Broken Chords & Tabs

 

Broken Chords & Tabs

Seether Chords & Tabs

Version: 4 Type: Tab 0 ratings
1 star 2 stars 3 stars 4 stars 5 stars
comments

Broken Tab

-------------------------------------------------------------------------------
			     BROKEN - SEETHER
-------------------------------------------------------------------------------

By:  STUNTASTIC830

The beginning is really simple--its not exact but if played right sounds ok

INTRO :
E----2/3--3--3-----3----3----2/3--3--3-----3----3----2/3--3--3-----3----3-------I
B-------------------0---0----------------------0---0----------------------0---0-I
G--------------0--------------------------0---------------------------0---------I
D-------------------------------------------------------------------------------I
A-------------------------------------------------------------------------------I
E----0---------------------------0--------------------------0-------------------I

E----0/2--3/2--0/2--3/2-----------I
B---------------------------------I
G---------------------------------I
D---0-----0-----0----0------------I
A---------------------------------I
E---------------------------------I

this continues throughout the whole song with the chords also

CHORDS:
E--0---00---3------3--3---0---00---3------3--3---0---00---3------3--3-----I
B--0---00---3------3--3---0---00---3------3--3---0---00---3------3--3-----I
G--0---00---0------0--0---0---00---0------0--0---0---00---0------0--0-----I
D--2---22---2------2--2---2---22---2------2--2---2---22---2------2--2-----I
A--2---22---3------3--3---2---22---3------3--3---2---22---3------3--3-----I
E--0---00---0------0--0---0---00---0------0--0---0---00---0------0--0-----I

E---2-22-3-2-0--0-22----
B---3-33-3-3-3--3-33----
G---2-22-2-2-2--2-22----
D---0-00-0-0-0--0-0-0---
A---0-00-0-0-0--0-0-0---
E-----------------------

REPEAT UNTIL CHORUS

CHORUS:
E--3333-3--0---0-0---3333-3--0---0-0---3333-3--0---0-0---3--3-3--0---0-0---I
B--3333-3--0---0-0---3333-3--0---0-0---3333-3--0---0-0---3--3-3--0---0-0---I
G--0000-0--0---0-0---0000-0--0---0-0---0000-0--0---0-0---0--0-0--0---0-0---I
D--2222-2--2---2-2---2222-2--2---2-2---2222-2--2---2-2---0--0-0--2---2-2---I
A--3333-3--2---2-2---3333-3--2---2-2---3333-3--2---2-2---2--2-2--2---2-2---I
E--0000-0--0---0-0---0000-0--0---0-0---0000-0--0---0-0---3--3-3--0---0-0---I

E--3333-3--0---0-0---3333-3--0---0-0---3333-3--0---0-0---3--3-3--0----------I
B--3333-3--0---0-0---3333-3--0---0-0---3333-3--0---0-0---3--3-3--0----------I
G--0000-0--0---0-0---0000-0--0---0-0---0000-0--0---0-0---0--0-0--0----------I
D--2222-2--2---2-2---2222-2--2---2-2---2222-2--2---2-2---0--0-0--2----------I
A--3333-3--2---2-2---3333-3--2---2-2---3333-3--2---2-2---2--2-2--2----------I
E--0000-0--0---0-0---0000-0--0---0-0---0000-0--0---0-0---3--3-3--0----------I

INTRO:
E----2/3--3--3-----3----3----2/3--3--3-----3----3----2/3--3--3-----3----3-------I
B-------------------0---0----------------------0---0----------------------0---0-I
G--------------0--------------------------0---------------------------0---------I
D-------------------------------------------------------------------------------I
A-------------------------------------------------------------------------------I
E----0---------------------------0--------------------------0-------------------I

E----0/2--3/2--0/2--3/2-----------I
B---------------------------------I
G---------------------------------I
D---0-----0-----0----0------------I
A---------------------------------I
E---------------------------------I

CHORDS:
E--0---00---3------3--3---0---00---3------3--3---0---00---3------3--3-----I
B--0---00---3------3--3---0---00---3------3--3---0---00---3------3--3-----I
G--0---00---0------0--0---0---00---0------0--0---0---00---0------0--0-----I
D--2---22---2------2--2---2---22---2------2--2---2---22---2------2--2-----I
A--2---22---3------3--3---2---22---3------3--3---2---22---3------3--3-----I
E--0---00---0------0--0---0---00---0------0--0---0---00---0------0--0-----I

E---2-22-3-2-0--0-22---
B---3-33-3-3-3--3-33---
G---2-22-2-2-2--2-22---
D---0-00-0-0-0--0-0-0--
A---0-00-0-0-0--0-0-0--
E----------------------

CHORUS:
[ Tab from: http://www.guitartabs.cc/tabs/s/seether/broken_tab_ver_4.html ]
E--3333-3--0---0-0---3333-3--0---0-0---3333-3--0---0-0---3--3-3--0---0-0---I
B--3333-3--0---0-0---3333-3--0---0-0---3333-3--0---0-0---3--3-3--0---0-0---I
G--0000-0--0---0-0---0000-0--0---0-0---0000-0--0---0-0---0--0-0--0---0-0---I
D--2222-2--2---2-2---2222-2--2---2-2---2222-2--2---2-2---0--0-0--2---2-2---I
A--3333-3--2---2-2---3333-3--2---2-2---3333-3--2---2-2---2--2-2--2---2-2---I
E--0000-0--0---0-0---0000-0--0---0-0---0000-0--0---0-0---3--3-3--0---0-0---I

E--3333-3--0---0-0---3333-3--0---0-0---3333-3--0---0-0---3--3-3--0----------I
B--3333-3--0---0-0---3333-3--0---0-0---3333-3--0---0-0---3--3-3--0----------I
G--0000-0--0---0-0---0000-0--0---0-0---0000-0--0---0-0---0--0-0--0----------I
D--2222-2--2---2-2---2222-2--2---2-2---2222-2--2---2-2---0--0-0--2----------I
A--3333-3--2---2-2---3333-3--2---2-2---3333-3--2---2-2---2--2-2--2----------I
E--0000-0--0---0-0---0000-0--0---0-0---0000-0--0---0-0---3--3-3--0----------I

SOLO:
E--------------------------------------0---I
B-----------------------------------0----0-I
G------------------------------------------I
D--------0-2-2/5-4-4/2-4/2-2---------------I
A ---0-2-----------------------------------I
E -0---------------------------------------I

E---------------------------------------------------I
B---------------------------------------------------I
G-----------------------------------7-5-4-2h4-4-4---I
D--------0-2-2/5-4-4/2-4/2-7------------------------I
A ---0-2--------------------------------------------I
E -0------------------------------------------------I

E--------------------------------------------0-----I
B-----------------------------------------0--------I
G--------------------------------------------------I
D--------0-2-2/5-4-4/2-4/2-7-5-2-------------------I
A---0-2--------------------------------------------I
E-0------------------------------------------------I

E---------------------------------------------------I
B---------------------------------------------------I
G-----------------------------------7-5-4-2h4-4-4---I
D--------0-2-2/5-4-4/2-4/2-7------------------------I
A---0-2---------------------------------------------I
E-0-------------------------------------------------I

CHORUS:
E--3333-3--0---0-0---3333-3--0---0-0---3333-3--0---0-0---3--3-3--0---0-0---I
B--3333-3--0---0-0---3333-3--0---0-0---3333-3--0---0-0---3--3-3--0---0-0---I
G--0000-0--0---0-0---0000-0--0---0-0---0000-0--0---0-0---0--0-0--0---0-0---I
D--2222-2--2---2-2---2222-2--2---2-2---2222-2--2---2-2---0--0-0--2---2-2---I
A--3333-3--2---2-2---3333-3--2---2-2---3333-3--2---2-2---2--2-2--2---2-2---I
E--0000-0--0---0-0---0000-0--0---0-0---0000-0--0---0-0---3--3-3--0---0-0---I

E--3333-3--0---0-0---3333-3--0---0-0---3333-3--0---0-0---3--3-3--0----------I
B--3333-3--0---0-0---3333-3--0---0-0---3333-3--0---0-0---3--3-3--0----------I
G--0000-0--0---0-0---0000-0--0---0-0---0000-0--0---0-0---0--0-0--0----------I
D--2222-2--2---2-2---2222-2--2---2-2---2222-2--2---2-2---0--0-0--2----------I
A--3333-3--2---2-2---3333-3--2---2-2---3333-3--2---2-2---2--2-2--2----------I
E--0000-0--0---0-0---0000-0--0---0-0---0000-0--0---0-0---3--3-3--0----------I

there are chords in the backround for this also:

ENDING:
E---12--7--------3--0-----12--7-----14--10--5-------|
B---------------3-----------------------------------|
G---------------------------------------------------|
D---------------------------------------------------|
A --------------------------------------------------|
E --------------------------------------------------|

E---12--7--------3--0-----12--7-----14--10--5------------------------|
B---------------3----------------------------------------------------|
G--------------------------------------------------------------------|
D--------------------------------------------------------2---2-------|
A--------------------------------------------------------2---2-------|
E-------------------------------------------------------^^^^^^-------|
                                                          (strum down then up)
                                                                 slowly
Comments