Seether - Broken Chords & Tabs

 

Broken Chords & Tabs

Seether Chords & Tabs

Version: 3 Type: Tab 0 ratings
1 star 2 stars 3 stars 4 stars 5 stars
comments

Broken Tab

Artist -Seether
Song - Broken (solo)
Tuning: EADGBE (Standard)
Tabbed By: Keanan Brackenridge  (Xtinction)

This is 100% accurate.. Enjoy!
E--------------------------------------0-------------------
B-----------------------------------0----0-----------------
G----------------------------------------------------------
D--------0-2-2/5-4-4/2-4/2-2-------------------------------
A---0-2----------------------------------------------------
E-0--------------------------------------------------------
[ Tab from: http://www.guitartabs.cc/tabs/s/seether/broken_tab_ver_3.html ]
E----------------------------------------------------------
B----------------------------------------------------------
G-----------------------------------7-5-4-2h4-4-4----------
D--------0-2-2/5-4-4/2-4/2-7-------------------------------
A---0-2----------------------------------------------------
E-0--------------------------------------------------------

E--------------------------------------------0-------------
B-----------------------------------------0----------------
G----------------------------------------------------------
D--------0-2-2/5-4-4/2-4/2-7-5-2---------------------------
A---0-2----------------------------------------------------
E-0--------------------------------------------------------

E----------------------------------------------------------
B----------------------------------------------------------
G-----------------------------------7-5-4-2h4-4-4----------
D--------0-2-2/5-4-4/2-4/2-7-------------------------------
A---0-2----------------------------------------------------
E-0--------------------------------------------------------
Comments