Seether - Broken Chords & Tabs

 

Broken Chords & Tabs

Seether Chords & Tabs

Version: 13 Type: Tab 0 ratings
1 star 2 stars 3 stars 4 stars 5 stars
comments

Broken Tab

   
Originally meant for three guitars, I tabbed it out for just one. The harmonic outro
is at the bottom and for the solo just play the intro behind it if you want to use a
second guitarist.  Solo may not look right, but it's the same notes, just in different 
on the fretboard. It is right though.

Tune half step down or keep it standard...sounds good either way

Intro:
eb|-2h3-----3-3-----3----------------0h2-----3p2-------------0h2-----3p2------|
Bb|-----0-----3-------3--3---------------3-------3---------------3-------3----|
Gb|-------0-------0-----0------(x3)-------2--------(x3)-----------2-------0---|
Db|-2------------0-----0-------------0-----------------------0----------------|
Ab|-----------3---------------------------------------------------------------|
Eb|---------------------------------------------------------------------------|

Verse: Em, C, Em, C, Em, C Em, C, (strum 4x each), D (x8)

Chorus: C, Em, D, C, Em, D, C, Em, D, C, Em, D (3x each)
after chorus:
Bb|-12-|---|harmonic
eb|-12-|---|harmonic


Solo:

eb|---------------------------0---------------------------------------------|
Bb|-------------------------0---0-------------------------------------------|
Gb|-------------------------------------------------------------------------|
Db|---------0-2/5-4-4-5-4-2-------------------------------------------------|
Ab|-----0-2-----------------------------------------------------------------|
Eb|---0---------------------------------------------------------------------|
[ Tab from: http://www.guitartabs.cc/tabs/s/seether/broken_tab_ver_13.html ]
eb|-------------------------------------------------------------------------|
Bb|-------------------------3-1-0-------------------------------------------|
Gb|-----------------------2-------2-2h4-4-4-4-------------------------------|
Db|---------0-2/5-4-4-5-4---------------------------------------------------|
Ab|-----0-2-----------------------------------------------------------------|
Eb|---0---------------------------------------------------------------------|

eb|---------------------------------0---------------------------------------|
Bb|-------------------------------0-----------------------------------------|
Gb|-------------------------------------------------------------------------|
Db|---------0-2/5-4-4-5-4-2-7-5-2-------------------------------------------|
Ab|-----0-2-----------------------------------------------------------------|
Eb|---0---------------------------------------------------------------------|

eb|-------------------------------------------------------------------------|
Bb|-------------------------3-1-0-------------------------------------------|
Gb|-----------------------2-------2-2h4-4-4-4-------------------------------|
Db|---------0-2/5-4-4-5-4---------------------------------------------------|
Ab|-----0-2-----------------------------------------------------------------|
Eb|---0---------------------------------------------------------------------|

Then Verse
Then Chorus

Then Verse with D/Dsus2? change
End on Em.

Harmonic Outro:
eb|--<12>--------------<12>--------------------------end-------<12>---------|
Bb|------<12>--------------<12>---<7>-----------------on-------<12>---------|
Gb|---------------<12>---------------<7>------------------------------------|
Db|-----------<12>----------------------<7>-x2------------------------------|
Ab|-------------------------------------------------------------------------|
Eb|-------------------------------------------------------------------------|

h: hammer-on
p: pull off
/: slide
<>: harmonics

Order:
Intro
Verse
Chorus
Verse
Chorus
Solo
Verse
Chorus
Verse


Chords used:
       C               Em                  D            Dsus2?
  e B G D A e       e B G D A e       e B G D A e    e B G D A e
  0 1 0 2 3 x       x x x 2 2 0       2 3 2 0 x x    0 3 2 x x x
Comments