Seether - Broken Chords & Tabs

 

Broken Chords & Tabs

Seether Chords & Tabs

Version: 10 Type: Tab 0 ratings
1 star 2 stars 3 stars 4 stars 5 stars
comments

Broken Tab

I did see a lot of tabs for this song but for the past year and a half i havent
seen a perfect one, anyway i feel that my version is exactly what seether plays.
By the way this is the tab for the original version and not the one they did with
amy lee. There are actually three guitars used in this song but ill tab it for two.

key: []- harmonics
      v- upstroke
      h- hammer on  
      s- slide

Thats all youn need for this song.

Intro and verses [Guitar 1- Dale Stewart]

[x3]                         [x1]
E-2h3---3- 3--- 3-----------|-0h2--3p2-0h2--3p2-------------------|
B----0---0-3-- 3-3----------|----3----3---3-----------------------|
G-----0----0- 0---0-0-------|-----0--------0----------------------|
D-2--------------- 0--------|-0-----------------------------------|
A----------3----------------|-------------------------------------|
E---------------------------|-------------------------------------|

[Guitar 2 - Shaun morgan]
 [x3]                        [x1]     
      v     v v     v             v v
E---0-0-x-0-0-0-0-0-0-------|-2-2-2-0-0-0-0-0-0-------------------|
B---0-0-x-1-1-1-1-1-1-------|-3-3-3-3-3-3-3-3-3-------------------|
G-0-0-0-x-0-0-0-0-0-0-------|-2-2-2-2-2-2-2-2-2-------------------|
D-2-2-2-x-2-2-2-2-2-2-------|-0-0-0-0-0-0-0-0-0-------------------|
A-2-2-2-x-3-3-3-3-3-3-------|-------------------------------------|
E-0-0-0-x-0-0-0-0-0-0-------|-------------------------------------      

Chorus:
[Guitar 1 and 2]
 
[x2]                         [x1]"and i won't..     
    v   v       v v                   v     v   v       v v
E-0-0-0-0-x-0-0-0-0-0-------|-------0-0-0-0-0-0-0-x-0-0-0-0-0------|
B-1-1-1-1-x-0-0-0-0-0-------|-------3-3-3-1-1-1-1-x-0-0-0-0-0------|
G-0-0-0-0-x---0-0-0-0-------|-------2-2-2-0-0-0-0-x---0-0-0-0------|
D-2-2-2-2-x---2-2-2-2-------|-------0-0-0-2-2-2-2-x---2-2-2-2------|
A-3-3-3-3-x---2-2-2-2-------|-------------3-3-3-3-x---2-2-2-2------|
E-0-0-0-0-x---0-0-0-0-------|-------------0-0-0-0-x---0-0-0-0------|                      
"when you're gone away..
          v   v                          
E-------0-0-0-0-x-0-0---|
B-------1-1-1-1-x-0-0---|
G-------0-0-0-0-x---0---|
D-------2-2-2-2-x---2---|
A-------3-3-3-3-x---2---|
E-------0-0-0-0-x---0---|  

2nd verse [Guitar 1- Dale Stewart]

[x3]                         [x1]
E-2h3---3- 3--- 3-----------|-0h2--3p2-0h2--3p2-------------------|
B----0---0-3-- 3-3----------|----3----3---3-----------------------|
G-----0----0- 0---0-0-------|-----0--------0----------------------|
D-2--------------- 0--------|-0-----------------------------------|
A----------3----------------|-------------------------------------|
E---------------------------|-------------------------------------|

[Guitar 2 - Shaun morgan]
 [x3]                        [x1]     
      v     v v     v             v v
E---0-0-x-0-0-0-0-0-0-------|-2-2-2-0-0-0-0-0-0-------------------|
B---0-0-x-1-1-1-1-1-1-------|-3-3-3-3-3-3-3-3-3-------------------|
G-0-0-0-x-0-0-0-0-0-0-------|-2-2-2-2-2-2-2-2-2-------------------|
D-2-2-2-x-2-2-2-2-2-2-------|-0-0-0-0-0-0-0-0-0-------------------|
A-2-2-2-x-3-3-3-3-3-3-------|-------------------------------------|
E-0-0-0-x-0-0-0-0-0-0-------|-------------------------------------
[ Tab from: http://www.guitartabs.cc/tabs/s/seether/broken_tab_ver_10.html ]
Chorus:
[Guitar 1 and 2]
 
[x2]                         [x1]"and i won't..     
    v   v       v v                   v     v   v       v v
E-0-0-0-0-x-0-0-0-0-0-------|-------0-0-0-0-0-0-0-x-0-0-0-0-0------|
B-1-1-1-1-x-0-0-0-0-0-------|-------3-3-3-1-1-1-1-x-0-0-0-0-0------|
G-0-0-0-0-x---0-0-0-0-------|-------2-2-2-0-0-0-0-x---0-0-0-0------|
D-2-2-2-2-x---2-2-2-2-------|-------0-0-0-2-2-2-2-x---2-2-2-2------|
A-3-3-3-3-x---2-2-2-2-------|-------------3-3-3-3-x---2-2-2-2------|
E-0-0-0-0-x---0-0-0-0-------|-------------0-0-0-0-x---0-0-0-0------|                      
"when you're gone away..
          v   v                          
E-------0-0-0-0-x-0-0---|
B-------1-1-1-1-x-0-0---|
G-------0-0-0-0-x---0---|
D-------2-2-2-2-x---2---|
A-------3-3-3-3-x---2---|
E-------0-0-0-0-x---0---|  

Solo:
[Shaun plays this while Dale plays the intro]

E-[12]-------------------------------|
B-[12]-------------------------------|
G----------------------------------9-|    
D-------------------------------- 9--|
A------------7-5-9h10-9-9h10-9s7-7---|
E-----0-3-5-7------------------------|  

E--------------------------------------------------|
B--------------------------------------------------|
G--------------------------------------------------|    
D---------------------------- -----12-10-9-7h9-9-9-|
A--------7-5-9h10-9-9h10 9h10-10s12----------------|
E-0-3-5-7------------------------------------------|  

E----------------------------------------|
B----------------------------------------|
G--------------------------------------9-|    
D-------------------------------------9--|
A--------7-5-9h10-9-9h10-9s7-7s12-10-7---|
E-0-3-5-7--------------------------------|  

E--------------------------------------------------|
B--------------------------------------------------|
G--------------------------------------------------|    
D---------------------------- -----12-10-9-7h9-9-9-|
A--------7-5-9h10-9-9h10 9h10-10s12----------------|
E-0-3-5-7------------------------------------------|  

[Back to chorus]

Chorus:
[Guitar 1 and 2]
 
[x2]                         [x1]"and i won't..     
    v   v       v v                   v     v   v       v v
E-0-0-0-0-x-0-0-0-0-0-------|-------0-0-0-0-0-0-0-x-0-0-0-0-0------|
B-1-1-1-1-x-0-0-0-0-0-------|-------3-3-3-1-1-1-1-x-0-0-0-0-0------|
G-0-0-0-0-x---0-0-0-0-------|-------2-2-2-0-0-0-0-x---0-0-0-0------|
D-2-2-2-2-x---2-2-2-2-------|-------0-0-0-2-2-2-2-x---2-2-2-2------|
A-3-3-3-3-x---2-2-2-2-------|-------------3-3-3-3-x---2-2-2-2------|
E-0-0-0-0-x---0-0-0-0-------|-------------0-0-0-0-x---0-0-0-0------|                      
"when you're gone away..
          v   v                          
E-------0-0-0-0-x-0-0---|
B-------1-1-1-1-x-0-0---|
G-------0-0-0-0-x---0---|
D-------2-2-2-2-x---2---|
A-------3-3-3-3-x---2---|
E-------0-0-0-0-x---0---|  

Outro:

[Guitar 2 - Shaun morgan]
 [x3]                        [x1]     
      v     v v     v             v v
E---0-0-x-0-0-0-0-0-0-------|-2-2-2-0-0-0-0-0-0-------------------|
B---0-0-x-1-1-1-1-1-1-------|-3-3-3-3-3-3-3-3-3-------------------|
G-0-0-0-x-0-0-0-0-0-0-------|-2-2-2-2-2-2-2-2-2-------------------|
D-2-2-2-x-2-2-2-2-2-2-------|-0-0-0-0-0-0-0-0-0-------------------|
A-2-2-2-x-3-3-3-3-3-3-------|-------------------------------------|
E-0-0-0-x-0-0-0-0-0-0-------|-------------------------------------|      

[Guitar 1 - Dale stewart]...please figure out the timing for this one

[x2]
E-[12]----------[12]--------------|
B---[12]----------[12]-[7]--------|
G-------[12]--------------[7]-----|
D-----[12]------------------[7]---|
A---------------------------------|
E---------------------------------|

end on:
       v  
E-[12]-0---|
B-[12]-0---|
G------0---|
D------2---|
A------2---|
E------0---|

Ok now that took a long time. I doubt there are any mistakes but if you think there
are you can mail me -jeevan_antony@hotmail.com...please rate the tab...it wud be a
nice way to say thank you.
Take care.....and thanx to seether for composin this wonderful song!
Comments