Seether - Broken Chords & Tabs

 

Broken Chords & Tabs

Seether Chords & Tabs

Version: 1 Type: Tab 3 ratings
1 star 2 stars 3 stars 4 stars 5 stars
comments

Broken Tab

   
Intro and Verse One :


       1.I wanted  you  to  know         I love the way u laugh
       2.I keep your photograph          I know it serves me well 

-||---------------------3---------|---------------------3---------|-
-||-7h8------8--3---------3-------|-7h8------8--3---------3-------|-
-||--------0-0--0-----0-----0---0-|--------0-0--0-----0-----0---0-|-
-||-------------------------------|-------------------------------|-
-||-7----7---7--3---3---------3---|-7----7---7--3---3---------3---|-
-||-------------------------------|-------------------------------|-


      1.I wanna hold u high    and  steal    ur pain            aw-ay
      2.I wanna hold u high    and  steal    ur pain    Chorus: Cuz I'm...            

-|---------------------3---------|-2--------3------2------2----3p2-2-||-
-|-7h8------8--3---------3-------|-----3--------3------3----3--3---3-||-
-|--------0-0--0-----0-----0---0-|---2--------2------2---------------||-
-|-------------------------------|-0--------0------0-----------------||-
-|-7----7---7--3---3---------3---|-----------------------------------||-
-|-------------------------------|-----------------------------------||-


Chorus (cont.):
    C   Em          C    Em
... Broken when I'm lonesome

           C    Em                D    Em
And I don' feel right when you're gone away




Verse 2:
[ Tab from: http://www.guitartabs.cc/tabs/s/seether/broken_tab.html ]
       1.The worst is over now           And we can breath again
       2.There's so ... to learn         And no 1 else to fight 

-||---------------------3---------|---------------------3---------|-
-||-7h8------8--3---------3-------|-7h8------8--3---------3-------|-
-||--------0-0--0-----0-----0---0-|--------0-0--0-----0-----0---0-|-
-||-------------------------------|-------------------------------|-
-||-7----7---7--3---3---------3---|-7----7---7--3---3---------3---|-
-||-------------------------------|-------------------------------|-


      1.I wanna hold u high    you  steal    my pain            aw-ay
      2.I wanna hold u high    and  steal    ur pain   Chorus: Cuz I'm...            

-|---------------------3---------|-2--------3------2------2----3p2-2-||-
-|-7h8------8--3---------3-------|-----3--------3------3----3--3---3-||-
-|--------0-0--0-----0-----0---0-|---2--------2------2---------------||-
-|-------------------------------|-0--------0------0-----------------||-
-|-7----7---7--3---3---------3---|-----------------------------------||-
-|-------------------------------|-----------------------------------||-











Chorus 2 (cont.):

   C   Em          C Em
...Borken when I'm open

            C    Em       D      Em
And I don't feel like I'm strong enough

    C   Em          C    Em
... Broken when I'm lonesome

           C    Em                D    Em
And I don' feel right when you're gone away
Comments