Seether - Broken Chords & Tabs

 

Broken Chords & Tabs

Seether Chords & Tabs

Version: 1 Type: Bass Tab 0 ratings
1 star 2 stars 3 stars 4 stars 5 stars
comments

Broken Bass Tab

Broken - Seether
Bass Tab

This is my own doing, but I'm positive it's right on.

This starts at the chorus.
                                                                            
-------------------------------|-------------------------------|
---------------------0-0-0-0---|---------------------0-0-0-0---|
--3-3-3-3--3-----------------2-|--3-3-3-3--3-----------------2-|
-------------0---0-0-----------|-------------0---0-0-----------|


                                                                
-------------------------------|-------------------------------|
---------------------0-0-0-0---|---------------------0-0-0-0---|
--3-3-3-3--3-----------------2-|--3-3-3-3--3-----------------2-|
-------------0---0-0-----------|-------------0---0-0-----------|


                                                                
-------------------------------|-------------------------------|
---------------------0-0-0-0---|---------------------0-0-0-0---|
--3-3-3-3--3-----------------2-|--3-3-3-3--3-----------------2-|
-------------0---0-0-----------|-------------0---0-0-----------|


                                                            
-------------------------------|---------------------------|
---------------------0-0-0-0---|-------------2-------------|
--3-3-3-3--3-----------------2-|--3-3-3-3--3---------------|
-------------0---0-0-----------|--------------------12/--0-|


                                                                           
------------------------|------------------------|------------------------|
------------------------|------------------------|------------------------|
----------3------3-5-3--|----------3------3-5-3--|----------3------3-5-3--|
--0----0----------------|--0----0----------------|--0----0----------------|


                                                                            
-------------------------|------------------------|------------------------|
--0---0-0---0-0---0-0----|------------------------|------------------------|
-------------------------|----------3------3-5-3--|----------3------3-5-3--|
-------------------------|--0----0----------------|--0----0----------------|


                                                                            
------------------------|-------------------------|------------------------|
------------------------|--0---0-0---0-0---0-0----|------------------------|
----------3------3-5-3--|-------------------------|----------3------3-5-3--|
--0----0----------------|-------------------------|--0----0----------------|


                                                                            
------------------------|------------------------|-------------------------|
------------------------|------------------------|--0---0-0---0-0---0-0----|
----------3------3-5-3--|----------3------3-5-3--|-------------------------|
--0----0----------------|--0----0----------------|-------------------------|


                                                                
-------------------------------|-------------------------------|
---------------------0-0-0-0---|---------------------0-0-0-0---|
--3-3-3-3--3-----------------2-|--3-3-3-3--3-----------------2-|
-------------0---0-0-----------|-------------0---0-0-----------|


                                                                
-------------------------------|-------------------------------|
---------------------0-0-0-0---|---------------------0-0-0-0---|
--3-3-3-3--3-----------------2-|--3-3-3-3--3-----------------2-|
-------------0---0-0-----------|-------------0---0-0-----------|

[ Tab from: http://www.guitartabs.cc/tabs/s/seether/broken_btab.html ]
                                                                
-------------------------------|-------------------------------|
---------------------0-0-0-0---|---------------------0-0-0-0---|
--3-3-3-3--3-----------------2-|--3-3-3-3--3-----------------2-|
-------------0---0-0-----------|-------------0---0-0-----------|


                                                            
-------------------------------|---------------------------|
---------------------0-0-0-0---|-------------2-------------|
--3-3-3-3--3-----------------2-|--3-3-3-3--3---------------|
-------------0---0-0-----------|--------------------12/--0-|


                                                                           
------------------------|------------------------|------------------------|
------------------------|------------------------|------------------------|
----------3------3-5-3--|----------3------3-5-3--|----------3------3-5-3--|
--0----0----------------|--0----0----------------|--0----0----------------|


                                                                            
-------------------------|------------------------|------------------------|
--0---0-0---0-0---0-0----|------------------------|------------------------|
-------------------------|----------3------3-5-3--|----------3------3-5-3--|
-------------------------|--0----0----------------|--0----0----------------|


                                                   
------------------------|-------------------------|
------------------------|--0---0-0---0-0---0-0----|
----------3------3-5-3--|-------------------------|
--0----0----------------|-------------------------|


                                                                
-------------------------------|-------------------------------|
---------------------0-0-0-0---|---------------------0-0-0-0---|
--3-3-3-3--3-----------------2-|--3-3-3-3--3-----------------2-|
-------------0---0-0-----------|-------------0---0-0-----------|


                                                                
-------------------------------|-------------------------------|
---------------------0-0-0-0---|---------------------0-0-0-0---|
--3-3-3-3--3-----------------2-|--3-3-3-3--3-----------------2-|
-------------0---0-0-----------|-------------0---0-0-----------|


                                                                
-------------------------------|-------------------------------|
---------------------0-0-0-0---|---------------------0-0-0-0---|
--3-3-3-3--3-----------------2-|--3-3-3-3--3-----------------2-|
-------------0---0-0-----------|-------------0---0-0-----------|


                                                                              
-------------------------------|------------------------|--------------------|
---------------------0-0-0-0---|-------------2----------|--------------------|
--3-3-3-3--3-----------------2-|--3-3-3-3--3------------|--7------3----------|
-------------0---0-0-----------|------------------------|--------------------|


                                                               
--------------------|--------------------|--------------------|
--------------------|--------------------|--0------0----------|
---------3----------|--7------3----------|--------------------|
--0-----------------|--------------------|--------------------|


                                                               
--------------------|--------------------|--------------------|
--------------------|--------------------|--------------------|
--7------3----------|---------3----------|--7------3----------|
--------------------|--0-----------------|--------------------|


                                 
--------------------|----------||
--0------0----------|----------||
--------------------|----------||
--------------------|----------||
Comments