Seether - Beer Chords & Tabs

 

Beer Chords & Tabs

Seether Chords & Tabs

Version: 1 Type: Tab 0 ratings
1 star 2 stars 3 stars 4 stars 5 stars
comments

Beer Tab

****************************************************
*** OFFICIAL TABLATURE SUPPLIED BY SARON GAS FOR ***
***     ABSOLUTE TABS  http://www.tabs.co.za     ***
****************************************************

Song Title:	Beer
Album:	Fragile
Artist:	Saron Gas (Now called Seether)
URL:		http://www.seether.com

Tuning: 		EADGBE

First Verse:*
		
		G	|-----------------------------------------------------------|
		D	|-----------4---------------4-------------------------------|
		A	|-------4-------4-------4-------4---------------------------|
		E	|---2---------------3---------------2-----------------------|

*This verse is picked on a clean guitar.

Second Verse:*
		E	|--------------------------------------------5--------------|
		B	|--------------------------------------------5--------------|
		G	|-----------------------------------------------------------|
		D	|-----------------------------------------------------------|
		A	|-----------------------------------------------------------|
		E	|--2---2-2---3-2-0---2--2--0--3--2--------------------------|

*Play the notes open. I added the little squeal done by the second guitar. 
 If you play it like this it sounds quite cool.
[ Tab from: http://www.guitartabs.cc/tabs/s/seether/beer_tab.html ]
Third Verse:*
		
		D	|-----------------------------------------------------------|
		A	|--4--4--4-----5--5-------4---------------------------------|
		E	|--2--2--2--0--3--3---0---2---------------------------------|

*The chords are all palm muted. The harmonics in this verse you’ll have to work 
 out for yourself.

Chorus:*
		
		G	|-----------------------------------------------------------|
		D	|--4-4-4-4--5-5-5-5--7-7-7----------------------------------|
		A	|--4-4-4-4--5-5-5-5--7-7-7----------7-----------------------|
		E	|--2-2-2-2--3-3-3-3--5-5-5--0--7-8--------------------------|

*Play the chords open, again.

End:*
		E	|-----------------------------------------------------------|
		B	|-----------------------------------------0-----------------|
		G	|-----6--4--0-----6--4--0-----------------5^--0-------------|
		D	|-----------------------------------------------------------|
		A	|-----------------------------------------------------------|
		E	|--0------------0----------------------0--------------------|

*The muted chords are the same as in the third verse, except there are two 
 variations to the end riff. I’ve only put them on - play them instead of 
 the harmonic in Verse3.

---------------------------
 This file passed through:
       Absolute Tabs
   http://www.tabs.co.za
---------------------------
Comments