Seether - 69 Tea Chords & Tabs

 

69 Tea Chords & Tabs

Seether Chords & Tabs

Version: 5 Type: Tab 0 ratings
1 star 2 stars 3 stars 4 stars 5 stars
comments

69 Tea Tab

This is my first official tab. I think it's pretty darn good. If you have any
corrections or suggestions email me at hobbit_vaught@hotmail.com

Artist: Seether
Album: Disclaimer

Tuning: Standard
Played with distortion throughout the whole song

INTRO:

E--------------------------------------------
B--------------------------------------------
G-----------7-7-7-7--------------------------  Play 2x
D----5-5-5--7-7-7-7--7-7-7--8-8-8-8----------
A----5-5-5--5-5-5-5--7-7-7--8-8-8-8----------
E----3-3-3-----------5-5-5--6-6-6-6----------

VERSE 1:

Lonely in this white room.......

E--------------------------------------------
B--------------------------------------------
G-----------7-7-7-7--------------------------  Play 8x
D----5-5-5--7-7-7-7--7-7-7--8-8-8-8----------
A----5-5-5--5-5-5-5--7-7-7--8-8-8-8----------
E----3-3-3-----------5-5-5--6-6-6-6----------

Chorus:

Don't tell me.....

E--------------------------------------------
B--------------------------------------------
G----9-9-9--4-4-4-4---------5-5-5-5---------- Play 4x
D----9-9-9--4-4-4-4--7-7-7--5-5-5-5----------
A----7-7-7--2-2-2-2--7-7-7--3-3-3-3----------
E--------------------5-5-5-------------------

Verse 2:

Lowly with my head.......

E--------------------------------------------
B--------------------------------------------
G-----------7-7-7-7--------------------------  Play 8x
D----5-5-5--7-7-7-7--7-7-7--8-8-8-8----------
A----5-5-5--5-5-5-5--7-7-7--8-8-8-8----------
E----3-3-3-----------5-5-5--6-6-6-6----------

Chorus:

Don't tell me.........

E--------------------------------------------
B--------------------------------------------
G----9-9-9--4-4-4-4---------5-5-5-5---------- Play 4x
D----9-9-9--4-4-4-4--7-7-7--5-5-5-5----------
A----7-7-7--2-2-2-2--7-7-7--3-3-3-3----------
E--------------------5-5-5-------------------

Brige:
[ Tab from: http://www.guitartabs.cc/tabs/s/seether/69_tea_tab_ver_5.html ]
E-------------------------------  |    E------------------------
B-------------------------------  |    B------------------------
G----5-5-----------4-4--5-5-5-5-  | or G----5-5--4-4--5--------- Play 6x
D----5-5--6-6-6-6--4-4--5-5-5-5-  |    D----5-5--4-4--5---------
A----3-3--6-6-6-6--2-2--3-3-3-3-  |    A----3-3--2-2--3---------
E---------4-4-4-4---------------  |    E------------------------

Solo Section:

The little solo is really simple. I don't even know if you can consider it a
solo. In the background is just the chords to the chorus being played.

E----10--10--10--12--13--12--10--10--10--12--13--12---
B------10--10--10--10--10--10--10--10--10--10--10--10-
G-----------------------------------------------------
D-----------------------------------------------------
A-----------------------------------------------------
E-----------------------------------------------------

E--10--10--10--12--13--12--10--10--10--12--13--12-------
B----10--10--10--10--10--10--10--10--10--10--10--10-----
G---------------------------------------------------9*--
D-------------------------------------------------------
A-------------------------------------------------------
E-------------------------------------------------------
             *let ring hold for 14 beats

Last of song:

(after the note you let ring)

E---------------------------------------------------------------------------
B---------------------------------------------------------------------------
G-------------9-9-9--4-4-4-4---------5-5--9-9-9--4-4-4-4---------5-5--------
D----7\--2*-2*--9-9-9--4-4-4-4--7-7-7--5-5--9-9-9--4-4-4-4--7-7-7--5-5--2-2*
A----7\--2*-2*--7-7-7--2-2-2-2--7-7-7--3-3--7-7-7--2-2-2-2--7-7-7--3-3--2-2*
E----5\--0*-0*------------------5-5-5-----------------------5-5-5-------0-0*
                 * palm muted

Finish song with:

E-------------------------------  |    E------------------------
B-------------------------------  |    B------------------------
G----5-5-----------4-4--5-5-5-5-  | or G----5-5--4-4--5---------
D----5-5--6-6-6-6--4-4--5-5-5-5-  |    D----5-5--4-4--5---------
A----3-3--6-6-6-6--2-2--3-3-3-3-  |    A----3-3--2-2--3---------
E---------4-4-4-4---------------  |    E------------------------

      / - slide up
      \ - slide down
Comments