Seether - 69 Tea Chords & Tabs

 

69 Tea Chords & Tabs

Seether Chords & Tabs

Version: 1 Type: Tab 1 rating
1 star 2 stars 3 stars 4 stars 5 stars
comments

69 Tea Tab

   
****************************************************
*** OFFICIAL TABLATURE SUPPLIED BY SARON GAS FOR ***
***     ABSOLUTE TABS  http://www.tabs.co.za     ***
****************************************************

Song Title:	69 Tea
Album:	Fragile
Artist:	Saron Gas (Now called Seether)
URL:		http://www.seether.com

Tuning:		E A D G B E

Verse (Riff 1):
		E 	|--------------------------------------------------------------|
		B 	|--------------------------------------------------------------|
		G  	|---------x--x--7--7--7--x--x----------------------7h8p7-------|
		D   	|--5--5---x--x--7--7--7--x--x--7--7--x--x--8--x-----------8----|
		A 	|--5--5---x--x--5--5--5--x--x--7--7--x--x--8--x----------------|
		E 	|--3--3---x--x-----------------5--5--x--x--6--x----------------|
[ Tab from: http://www.guitartabs.cc/tabs/s/seether/69_tea_tab.html ]
Chorus (Riff 2a):	
		E	|--------------------------------------------------------------|
		B	|--------------------------------------------------------------|
		G	|--9--9--x--x--------------------------------5--5--5--x--x-----|
		D	|--9--9--x--x--9--9--9--9--x--x--7--7--x--x--5--5--5--x--x-----|
		A	|--7--7--x--x--9--9--9--9--x--x--7--7--x--x--3--3--3--x--x-----|
		E	|--7--7--x--x--7--7--7--7--x--x--5--5--x--x--3--3--3--x--x-----|

Chorus (Riff 2b): 
		E	|--------------------------------------------------------------|
		B	|--------------------------------------------------------------|
		G	|--9--9--x--x--------------------------------5--x--x--x--x--x--|
		D	|--9--9--x--x--9--9--9--9--x--x--7--7--x--x--5--x--x--x--x--x--|
		A	|--7--7--x--x--9--9--9--9--x--x--7--7--x--x--3--x--x--x--x--x--|
		E	|--7--7--x--x--7--7--7--7--x--x--5--5--x--x--3--x--x--x--x--x--|

Bridge (Riff 3):
		E	|--------------------------------------------------------------|
		B	|--------------------------------------------------------------|
		G	|--5--5--x--x--------------x--x--4--4--x--x--------------------|
		D	|--5--5--x--x--6--6--6--6--x--x--4--4--x--x--3--3--3--3--x--x--|
		A	|--3--3--x--x--6--6--6--6--x--x--2--2--x--x--3--3--3--3--x--x--|
		E	|--3--3--x--x--4--4--4--4--x--x--2--2--x--x--1--1--1--1--x--x--|


Okay, those are the basic chords, and I've never done this before so figure out the 
structure for yourself.


---------------------------
 This file passed through:
       Absolute Tabs
   http://www.tabs.co.za
---------------------------
Comments