Seether - 69 Tea Chords & Tabs

 

69 Tea Chords & Tabs

Seether Chords & Tabs

Version: 2 Type: Bass Tab 0 ratings
1 star 2 stars 3 stars 4 stars 5 stars
comments

69 Tea Bass Tab

   
-------------------------------------------------------------------------------
			     Seether - 69 Tea
-------------------------------------------------------------------------------
Tabbed By : Adam Cowley
e-mail: adam@areasix.co.uk

Tuning: Drop D

There was another version on here, but I noticed there are little flicks in the song.
The Other tab was in Standard tuning, but the whole band play it with guitars in Drop D.

This song can be played in Standard tuning, just play the notes on the top string down
two frets.

The Bass doesnt come in until the drums start to play at 0:26.


Verse:

The first verse is played plainly:
g|---------------------------|
d|---------------------------|
a|------5-5-5-5--------------|
d|--5-5---------7-7-8-8-8-8--|
[ Tab from: http://www.guitartabs.cc/tabs/s/seether/69_tea_btab_ver_2.html ]
On the second verse however, Dale plays a variation:
g|---------------------------|
d|---------------------------|
a|------5-5-5-5-----7-8-7----|
d|--5-5---------7-7----------|


Chorus:
g|---------------------------------------------------|
d|---------------------------------------------------|
a|--7-7--------------------------7-7-----------------|
d|------9-9-9-7-7-7-10-10-10-10------9-9-9-7-7-7-10--|



Bridge:
g|------------------------|
d|------------------------|
a|-3-3-----------2-2------|
d|------6-6-6-6------3-3--|

Play the chorus bass through the solo.


| /  slide up
| \  slide down
| h  hammer-on
| p  pull-off
| ~  vibrato
| +  harmonic
| x  Mute note
===============================================================================
Comments, corrections to adam@areasix.co.uk.
Thanks.
Comments