Seether - 69 Tea Chords & Tabs

 

69 Tea Chords & Tabs

Seether Chords & Tabs

Version: 1 Type: Bass Tab 0 ratings
1 star 2 stars 3 stars 4 stars 5 stars
comments

69 Tea Bass Tab

   
-------------------------------------------------------------------------------
			     69 Tea - Seether
-------------------------------------------------------------------------------

Tabbed By : Dustin Green
e-mail: nirvanabassplayr

Tuning:EADG
             i looked every were for this and found nothin   so i decided i 
           should do it (have mercy it's my first tab)    
  
[ Tab from: http://www.guitartabs.cc/tabs/s/seether/69_tea_btab.html ]
  intro  x4                    (wait for drums)
G|---------------------------------------------------------------------------|
D|---------------------------------------------------------------------------|
A|---------5--5--5-----------------------------------------------------------|
E|-3--3---------------5--5---6--6--6-----------------------------------------|
  chorus x4                    (dont tell me that your all better...)
G|---------------------------------------------------------------------------|
D|---------------------------------------------------------------------------|
A|-7--7--7-------------------------------------------------------------------|
E|------------7--7--7---2--2---8--8--8--8------------------------------------|
  verse  x8                    (lonely with my head bowed...)
G|---------------------------------------------------------------------------|
D|---------------------------------------------------------------------------|
A|---------5--5--5-----------------------------------------------------------|
E|-3--3---------------5--5---6--6--6-----------------------------------------|
  bridge(lots of times)        (ahhh part)
G|---------------------------------------------------------------------------|
D|---------------------------------------------------------------------------|
A|--3--3--3--3--3--3---2--2---3--3--3----------------------------------------|
E|---------------------------------------------------------------------------|

order:
intro
chorus
verse
chorus
bridge (after this play them verse rift until chorus starts)
chorus
bridge (starts off with the 2's after pause)

| /  slide up
| \  slide down
| h  hammer-on
| p  pull-off
| ~  vibrato
| +  harmonic
| x  Mute note

===============================================================================
Comments