Seether - 69 Tea Acoustic Chords & Tabs

 

69 Tea Acoustic Chords & Tabs

Seether Chords & Tabs

Version: 2 Type: Tab 0 ratings
1 star 2 stars 3 stars 4 stars 5 stars
comments

69 Tea Acoustic Tab

Seether - 69 Tea (live acoustic)

****************************************************************
From the Ultimate Guitar/UGO unplugged performance!
****************************************************************

Watched the video and this is it!  Everything very accurate!
Pay close attention to the power chord variations! 

**I've made small corrections that slipped past me the first time!!**
**This one, IS right this time!!**

Tabbed by INCUBOSITY
Tuning: Standard  EADGBE

Guitar 1 - Shaun Morgan
Guitar 2 - Pat Callahan

INTRO  2X
Guitar 1
E----------------------------------------------------|
B----------------------------------------------------|
G--------------7-7-7-------------------7h8-7---------|
D-----5-5--x---7-7-7--x-x--7-7--x---8----------------|
A-----5-5--x---5-5-5--x-x--7-7--x---8----------------|
E-----3-3--x----------x-x--5-5--x---6----------------|

Guitar 2
E-----------------------------------------------9>>>>>--| slide up quickly!
B-------------------------------------------------------|
G---------------------------------------7h8-7-----------|
D-------------------------------------------------------|
A-------------------------------------------------------|
E-------------------------------------------------------|

VERSE  8X
Guitar 1
E-------------------------------------------------|
B-------------------------------------------------|
G--------------7-7-7--------------------7h8-7-----|
D-----5-5--x---7-7-7--x-x--7-7--x-x--8------------|
A-----5-5--x---5-5-5--x-x--7-7--x-x--8------------|
E-----3-3--x----------x-x--5-5--x-x--6------------|

After 4 times of Guitar 1 playing VERSE and Guitar 2 playing his INTRO riff 4 times,
Guitar 2 plays what's below! NOTE: Watch Pat in the video here - the 2nd chord is right!
E-------------------------------------------------|
B-------------------------------------------------|
G---------------------------------------7h8-7-----|
D-----5-5--x---7-7-7--x-x--7-7--x-x--8------------|
A-----5-5--x---5-5-5--x-x--7-7--x-x--8------------|
E-----3-3--x---5-5-5--x-x--5-5--x-x--6------------|

CHORUS  2X
Both Guitars
E-------------------------------------------------------|
B-------------------------------------------------------|
G----------9-9----------------------------5-5-5-5-------|
D-----x-x--9-9--x-x--9-9-9--x-x--7-7--x-x-5-5-5-5-------|
A-----x-x--7-7--x-x--9-9-9--x-x--7-7--x-x-3-3-3-3-------|
E-----x-x--7-7--x-x--7-7-7--x-x--5-5--x-x-3-3-3-3-------|

E----------------------------------------------------------|
B----------------------------------------------------------|
G----------9-9-----------------------------5---------------|
D-----x-x--9-9--x-x--9-9-9--x-x--7-7--x-x--5----x-x-xx-----|
A-----x-x--7-7--x-x--9-9-9--x-x--7-7--x-x--3----x-x-xx-----|
E-----x-x--7-7--x-x--7-7-7--x-x--5-5--x-x--3----x-x-xx-----|
[ Tab from: http://www.guitartabs.cc/tabs/s/seether/69_tea_acoustic_tab_ver_2.html ]
Then Play VERSE 8X
Then CHORUS     2X

BRIDGE  6X
E----------------------------------------------------|
B----------------------------------------------------|
G----------------------------------------------------|
D-5-5-5-x--6-6-6-6-6-6-6-x-x--4-4--x--3--3-3-3-3-3-3-|
A-3-3-3-x--6-6-6-6-6-6-6-x-x--2-2--x--3--3-3-3-3-3-3-|
E-3-3-3-x--4-4-4-4-4-4-4-x-x--2-2--x--1--1-1-1-1-1-1-|

SOLO
Guitar 1 -- Guitar 2 plays the verse a few times with this!
E-9----9----9----11----12----12s11p9----9----9----9----11----12----12s11p9-|
B--9----9----9-----9-----9---------------9----9----9-----9-----9---9-------|
G--------------------------------------------------------------------------|
D--------------------------------------------------------------------------|
A--------------------------------------------------------------------------|
E--------------------------------------------------------------------------|

E-9----9----9----11----12----12s11p9----9----9----9----11----12----12s11p9-|
B--9----9----9-----9-----9---------------9----9----9-----9-----9---9-------|
G--------------------------------------------------------------------------|
D--------------------------------------------------------------------------|
A--------------------------------------------------------------------------|
E--------------------------------------------------------------------------|

SOLO Continued
Guitar 1 - 5X - played very fast
E-12s11p9----|
B------------|
G------------|
D------------|
A------------|
E------------|

Guitar 2 - Plays something (I have figured out the last handfull of picking below),
but could use some help figuring out what comes immediately before it!!  Watch the
video at UGO.com and email me at natedog5656@yahoo.com if you know what it is! Credit
will be given of course!

This is the part I have figured out, but something is played before this!
E-9---9---9---9---|>>>>>>>>>>>>> slide all the way up
B-----------------|
G-----------------|
D-----------------|
A-----------------|
E-----------------|

CHORUS  1X
Chorus ends with both guitars holding index finger over bottom 3 strings over the 1st
and muting the strings while "scratching" over them five times!

CHORUS  1X

PAUSE  - Scratch/Mute Both Guitars 4 times.

Play this once      ||  Play this 8X (BRIDGE riff)
E-------------------||----------------------------------------------------|
B-------------------||----------------------------------------------------|
G-------------------||----------------------------------------------------|
D-4-4-4-4---3-3-3-3-||-5-5-5-x--6-6-6-6-6-6-6-x-x--4-4--x--3--3-3-3-3-3-3-|
A-2-2-2-2---3-3-3-3-||-3-3-3-x--6-6-6-6-6-6-6-x-x--2-2--x--3--3-3-3-3-3-3-|
E-2-2-2-2---1-1-1-1-||-3-3-3-x--4-4-4-4-4-4-4-x-x--2-2--x--1--1-1-1-1-1-1-|

End With:
E---------|
B---------|
G---------|     Mute immediately
D----5----|
A----3----|
E----3----|
Comments