Seeds Of Discord - Pools Of Mercury Chords & Tabs

 

Pools Of Mercury Chords & Tabs

Seeds Of Discord Chords & Tabs

Version: 2 Type: Bass Tab 0 ratings
1 star 2 stars 3 stars 4 stars 5 stars
comments

Pools Of Mercury Bass Tab

   
Seeds of Discord
Pools of Mercury
>From the CD Pools of Mercury


intro                   pre-verse
			   X8
G:---------------------|---R---R------|
D:*-------------------*|---E---E------|
A:*3----3-----3---3---*|-5-S-5-S-5-(5)|
D:----0-----0---0---0--|-0-T-0-T-0-(0)|


G:-0H2H4P2P0-7-0H2H4P2P0-9-0H2H4P2P0-0H2H4P2P0-|
D:---------------------------------------------|
A:---------------------------------------------|
D:---------------------------------------------|


G:-0H2H4P2P0-7-0H2H4P2P0-9--11-|-0H2H4P2P0-7-|
D:-----------------------------|-------------|
A:-----------------------------|-------------|
D:-----------------------------|-------------|

verse

G:-----------------|-----------------|
D:-4-5-------------|-4-5-------------|
A:-----5-4-4-5-----|-----5-4-4-5-----|
D:-------------0---|-------------0---|


G:----------------|----------------|
D:-4-5------------|-4-5------------|
A:-----5-4-4-5-3--|-----5-4-4-5--x-|
D:----------------|--------------0-|

repeat pre-verse

G:-----------------|-----------------| 
D:-4-5-------------|-4-5-------------|
A:-----5-4-4-5-----|-----5-4-4-5-----|
D:-------------0---|-------------0---|


G:----------------|----------------|---------------------|
D:-4-5------------|----------------|*----2--------------*|
A:-----5-4-4-5-3--|-3-3---2---2-2--|*2-3--2-3-------5---*|
D:----------------|----------------|-----------0-0-0-----|


G:-------------|--------------------|-----------------------|
D:-------------|--------------------|*-----2---------------*|
A:-------2-----|-3---3-3---2---2-2--|*-2-3---2-3-------5---*|
D:-1-0-3---3-0-|--------------------|------------0-0-0------|


G:-------------|-----r-|
D:-------------|-----e-|
A:-------2-----|-----s-|
D:-1-0-3---3-0-|-0-0-t-|


G:------------|-7--(7)---|-----------------------7--(7)-|
D:------------|-7--(7)---|-----------------------7--(7)-|
A:------------|-5--(5)---|-----------------------5--(5)-|
D:------------|-0--(0)---|---6P5P0-6P5P0-6P5P0-0-0--(0)-|


G:------7-7--(7)---|-----------------------7-|
D:------7-7--(7)---|-----------------------7-|
A:------5-5--(5)---|-----------------------5-|
D:--------0--(0)---|---6P5P0-6P5P0-6P5P0-0-0-|


G:----------------------------------------------|
D:----------------------------------------------|
A:-----9-----7-----10-----9-----12-----10-3-5-5-|
D:-X-X---0-0---0-0----0-0---0-0----0-0----------|


G:--------------------------------------------------------|
D:--------------------------------------------------------|
A:-----9-----7-----10-----9-----12\-----------------------|
D:-X-X---0-0---0-0----0-0---0-0----6P5P0-6P5P0-6P5P0-0-0--|


G:-------------------------------------------------|---R---R-------|
D:-------------------------------------------------|---E---E-------|
A:-----9-----7-----10-----9-----12-----10-3-5-5-(5)|-5-S-5-S-5-(5)-|
D:-X-X---0-0---0-0----0-0---0-0----0-0-------------|-0-T-0-T-0-(0)-|


G:-0H2H4P2P0-7-0H2H4P2P0-9-0H2H4P2P0-0H2H4P2P0-|
D:---------------------------------------------|
A:---------------------------------------------|
D:---------------------------------------------|

[ Tab from: http://www.guitartabs.cc/tabs/s/seeds_of_discord/pools_of_mercury_btab_ver_2.html ]
G:-0H2H4P2P0-7-0H2H4P2P0-9--11-|-0H2H4P2P0-7-|
D:-----------------------------|-------------|
A:-----------------------------|-------------|
D:-----------------------------|-------------|

G:-----------------|-----------------|
D:-4-5-------------|-4-5-------------|
A:-----5-4-4-5-----|-----5-4-4-5-----|
D:-------------0---|-------------0---|


G:----------------|----------------|
D:-4-5------------|-4-5------------|
A:-----5-4-4-5-3--|-----5-4-4-5--x-|
D:----------------|--------------0-|


G:-----------------|-----------------| 
D:-4-5-------------|-4-5-------------|
A:-----5-4-4-5-----|-----5-4-4-5-----|
D:-------------0---|-------------0---|


G:----------------|----------------|---------------------|
D:-4-5------------|----------------|*----2--------------*|
A:-----5-4-4-5-3--|-3-3---2---2-2--|*2-3--2-3-------5---*|
D:----------------|----------------|-----------0-0-0-----|


G:-------------|--------------------|-----------------------|
D:-------------|--------------------|*-----2---------------*|
A:-------2-----|-3---3-3---2---2-2--|*-2-3---2-3-------5---*|
D:-1-0-3---3-0-|--------------------|------------0-0-0------|


G:---------------------------R-|
D:---------------------------E-|
A:-------2-----3-----2-------S-|
D:-1-0-3---3-0---0-3---3-0-0-T-|


G:------------|-7--(7)---|-----------------------7--(7)-|
D:------------|-7--(7)---|-----------------------7--(7)-|
A:------------|-5--(5)---|-----------------------5--(5)-|
D:------------|-0--(0)---|---6P5P0-6P5P0-6P5P0-0-0--(0)-|



G:------7-7--(7)---|-----------------------7-|
D:------7-7--(7)---|-----------------------7-|
A:------5-5--(5)---|-----------------------5-|
D:--------0--(0)---|---6P5P0-6P5P0-6P5P0-0-0-|


G:----------------------------------------------|
D:*---------------------------------------------|
A:*----9-----7-----10-----9-----12-----10-3-5-5-|
D:-X-X---0-0---0-0----0-0---0-0----0-0----------|


G:--------------------------------------------------------|
D:-------------------------------------------------------*|
A:-----9-----7-----10-----9-----12\----------------------*|
D:-X-X---0-0---0-0----0-0---0-0----6P5P0-6P5P0-6P5P0-0-0--|


G:------------------------|
D:*----------------------*|
A:*----------------------*|
D:-6P5P0-6P5P0-6P5P0-0-0--| X 4


G:-----------------------R--|
D:*----------------------E-*|
A:*----------------------S-*|
D:-6-5-0-6-5-0-6-5-0-0-0-T--| X 4


G:------------------------|
D:*----------------------*|
A:*----------------------*|
D:-6P5P0-6P5P0-6P5P0-0-0--| X 4


G:---R-|-----------------|
D:---E-|*---------------*|
A:---S-|*----3----3---3-*|
D:-0-T-|--0-----0---0----| x 4


G:---------------------|
D:*-------------------*|
A:*----3-----3--------*|
D:--0-----0-----1-1-1--| X 8


G:-------R--------------------------------------------------|
D:-------E--------------------------------------------------|
A:-------S-3-3-3--3-3-3--3-3-3--3-3-3--3-3-3--3-3-3-3-3-3-3-|
D:-1-1-1-T--------------------------------------------------|


G:-------------R-------R-------R-|
D:-------------E-------E-------E-|
A:-------------S-------S-------S-|
D:-0-(0)-0-0-0-T-1-1-1-T-0-0-0-T-|


Tabbed by Geoff McLeod
Authorized by me
God_of_discord@hotmail.com
Comments