Section 10 - Debra Chords & Tabs

 

Debra Chords & Tabs

Section 10 Chords & Tabs

Version: 2 Type: Tab 0 ratings
1 star 2 stars 3 stars 4 stars 5 stars
comments

Debra Tab

   
^ ^ = palm mute

Intro(bass):

G--------------------------------------------
D--------------------------------------------
A-----9----------7---------5---------5-------  (x4)
E-7-7-----7-5-5----5-3-3----3---3---3--------

Intro(guitar): Come in with bass after 2 times

All Palm Muted, no distortion
e------------------------------------------------
B------------------------------------------------
G------------------------------------------------
D---------0-9-7-5-7--5---x-x--5--x-x--5--x-x--5--  (x2)
A------9-------------5---x-x--5--x-x--5--x-x--5--
E-7-7----------------3---x-x--3--x-x--3--x-x--3--

Intro Part 2: clean

        B5          G5           A5          G5
e---------------------------------------------------
B---------------------------------------------------
G---------------------------------------------------
D----9-9-9-9-9---5-5-5-5-5---7-7-7-7-7---5-5-5-5-5--  (x2)
A----9-9-9-9-9---5-5-5-5-5---7-7-7-7-7---5-5-5-5-5--
E----7-7-7-7-7---3-3-3-3-3---5-5-5-5-5---3-3-3-3-3--

Verse: Distorted

         B5           D5           A5       G5   A5
e----------------------------------------------------
B----------------------------------------------------
G-----------------7--7-7-7-7-------------------------
D----9--9-9-9-9---7--7-7-7-7---7--7-7-7-7---5-x-x-7--  (x2)
A----9--9-9-9-9---5--5-5-5-5---7--7-7-7-7---5-x-x-7--
E----7--7-7-7-7----------------5--5-5-5-5---3-x-x-5--
        ^ ^ ^ ^      ^ ^ ^ ^      ^ ^ ^ ^

e------------------------------------------------------
B------------------------------------------------------
G--------------7-7-7-7-7-----------------------------
D--9-9-9-9-9---7-7-7-7-7---7-7-7-7-7---5-x-x-7--------- (x2)
A--9-9-9-9-9---5-5-5-5-5---7-7-7-7-7---5-x-x-7---------
E--7-7-7-7-7---------------5-5-5-5-5---3-x-x-5---------

Chorus:

Bass Plays  this while guitar does lower part:
G--------------------------------------9-9-9-9-9--
D--4-4-4-4-4---5-5-5-5-5---7-7-7-7-7--------------
A------------------------------------------------- (x2)
E-------------------------------------------------

Guitar part(clean):
e------------------------------------
B------------------------------------
G------------------------------------
D----5---5---5---5---5---5---5---5---  (x2)
A--0---5---0---5---0---5---0---5-----
E------------------------------------

Then bass and guitar together:
      F#5         G5          A5          D5         
e-------------------------------------------------
B-------------------------------------------------
G--------------------------------------7-7-7-7-7--
D--4-4-4-4-4---5-5-5-5-5---7-7-7-7-7---7-7-7-7-7--
A--4-4-4-4-4---5-5-5-5-5---7-7-7-7-7---5-5-5-5-5--
E--2-2-2-2-2---3-3-3-3-3---5-5-5-5-5--------------
[ Tab from: http://www.guitartabs.cc/tabs/s/section_10/debra_tab_ver_2.html ]
      F#5         G5          A5      D5
e-----------------------------------------
B-----------------------------------------
G--------------------------------------7--
D--4-4-4-4-4---5-5-5-5-5---5-5-5-5-5---7--  (Let Ring)
A--4-4-4-4-4---5-5-5-5-5---7-7-7-7-7---5--
E--2-2-2-2-2---3-3-3-3-3---5-5-5-5-5------

Intro:  Begin on guitar intro and only play twice

Intro Part 2: as one guitar plays intro 2, 
      another distorted guitar plays this:

e---------------------------
B---------------------------
G------4-----0-----2-----0--
D---------------------------  (x2)
A--0-0---0-0---0-0---0-0----
E---------------------------
   ^ ^   ^ ^   ^ ^   ^ ^

Verse

Chorus

Bridge: distorted

      B5         G5          A5         G5               B5
e------------------------------------------------       ----
B------------------------------------------------       ----
G------------------------------------------------       ----
D-9-9-9-9--9--5-5-5-5--5--7-7-7-7--7--5-5-5-5--5- (x2)  --9-
A-9-9-9-9--9--5-5-5-5--5--7-7-7-7--7--5-5-5-5--5-       --9-
E-7-7-7-7--7--3-3-3-3--3--5-5-5-5--5--3-3-3-3--3-       --7-
  ^ ^ ^ ^     ^ ^ ^ ^     ^ ^ ^ ^     ^ ^ ^ ^   
                                             
Bass Solo:

G--------------------------------------------
D-----------------7-5------------------------
A------9-7----5-5------------7-5-------------  (x6)
E--7-7-------------------5-5--------3-3--5-5-

on third time of bass solo, guitar comes in and does this: 
(all Palm muted and distorted)
e-----------------------------------
B-----------------------------------
G-----------------------------------
D----4---4---0---0---4---4---5---5--
A--0---0---0---0---0---0---0---0----
E-----------------------------------

Outro: 

Distorted
      F#5         G5          A5          D5
e-------------------------------------------------
B-------------------------------------------------
G--------------------------------------7-7-7-7-7--
D--4-4-4-4-4---5-5-5-5-5---7-7-7-7-7---7-7-7-7-7--  (x2)
A--4-4-4-4-4---5-5-5-5-5---7-7-7-7-7---5-5-5-5-5--
E--2-2-2-2-2---3-3-3-3-3---5-5-5-5-5--------------

      F#5         G5          A5          D5       
e-----------------------------------------------
B-----------------------------------------------
G--------------------------------------7-7-7-7--
D--4-4-4-4-4---5-5-5-5-5---7-7-7-7-7---7-7-7-7--
A--4-4-4-4-4---5-5-5-5-5---7-7-7-7-7---5-5-5-5--
E--2-2-2-2-2---3-3-3-3-3---5-5-5-5-5------------
                                      [Start using down
                                       strokes here and 
                                       finish off song 
                                       with that rhythm]
     F#5       G5        A5     D5
e-----------------------------------
B-----------------------------------
G--------------------------------7--
D--4-4-4-4---5-5-5-5---7-7-7-7---7-- (End on that chord and 
A--4-4-4-4---5-5-5-5---7-7-7-7---5--    let ring)
E--2-2-2-2---3-3-3-3---5-5-5-5------
Comments