Secret Machines - Sad And Lonely Chords & Tabs

 

Sad And Lonely Chords & Tabs

Secret Machines Chords & Tabs

Version: 1 Type: Tab 0 ratings
1 star 2 stars 3 stars 4 stars 5 stars
comments

Sad And Lonely Tab

great song from the Secret Mchines! Intro isnt perfect, (u'll probably need some sort of 
pedal. i use a snarling dogs psycho schumatic pedal. works allright). any improvements, 
free to email them me lazyrob_04@hotmail.com. thanks.

intro.

E ----------------------------------------------|
A ----------------------------------------------|
D ----7---------7--------7------------7---------|
G ---------5----------5--------5--------7-5-7-5-|
B ------5----------5--------5-------------------|
E ----------------------------------------------|

E ----------------------------------------------|
A ----------------------------------------------|
D ----7---------7--------7------------7---------|
G ---------5----------5--------5----------------|
B ------5----------5--------5-----------7-5-7-5-|
E ----------------------------------------------|
(repeat this a few times with some variations if possible)

Just before the drums kick in play this (bend the string)

E ----------------------------------------------|
A ----------------------------------------------|
D --14-14-14-14-14-14-14------------------------|
G ----------------------------------------------|
B ----------------------------------------------|
E ----------------------------------------------|

verse. (dont strum the chord continously)
"did you get your heartache and your headrush confused..."

E ------5---------------------------------------|
A ------7---------------------------------------|
D ------7---------------------------------------|
G ------6---------------------------------------|
B ------5---------------------------------------|
E ------5---------------------------------------|

"are you alone"

E ------5---------------------------------------|
A ------5---------------------------------------|
D ------7---------------------------------------|
G ------7---------------------------------------|
B ------7---------------------------------------|
E ------5---------------------------------------|

chorus.
"and it feels like those around want you to die..

E ------7-----------------9-----------------5---|
A ------7-----------------11----------------5---|
D ------9-----------------11----------------7---|
G ------9-----------------10----------------7---|
B ------9-----------------9-----------------7---|
E ------7-----------------9-----------------5---|

...are you alive"
[ Tab from: http://www.guitartabs.cc/tabs/s/secret_machines/sad_and_lonely_tab.html ]
E ------5---------------------------------------|
A ------7---------------------------------------|
D ------7---------------------------------------|
G ------6---------------------------------------|
B ------5---------------------------------------|
E ------5---------------------------------------|

REPEAT VERSE
REPAET CHORUS x3

the kool bass solo come in here then the guitar solo...

E -----------------------------------------------------------|
A --12-12-12-12/10-10-10-10-10/14-10-10--10-9-10-9-10-9-10-9-|
D -----------------------------------------------------------|  x2
G -----------------------------------------------------------|
B -----------------------------------------------------------|
E -----------------------------------------------------------|


E ---------------------------------------------|
A ---------------------------------------------|
D ---------------------------------------------|
G --14--14--14--14/12-12-16-14-----------------| (play this bit once)
B ---------------------------------------------|
E ---------------------------------------------|

E ---------------------------------------------|
A ---------------------------------------------|
D ---------------------------------------------| x2
G --12/14-14--14-14/12-12-16-14----------------|
B ---------------------------------------------|
E ---------------------------------------------|


E ---------------------------------------------|
A ---------------------------------------------|
D ---------------------------------------------| (bend the 14)
G --12--14-14-14-14-14-14-14-14-14-14-14-------|
B ---------------------------------------------|
E ---------------------------------------------|

back to a slightly different chorus...

E ------7-----------------9-----------------5---|
A ------7-----------------11----------------5---|
D ------9-----------------11----------------7---|  x3
G ------9-----------------10----------------7---|
B ------9-----------------9-----------------7---|
E ------7-----------------9-----------------5---|

...are you alive"

E ------5---------------------------------------|
A ------7---------------------------------------|
D ------7---------------------------------------|
G ------6---------------------------------------|
B ------5---------------------------------------|
E ------5---------------------------------------|

outro. (bend strings)

E ---------------------------------------------|
A ---------------------------------------------|
D ------------------------12/14--12--11--------|  x2
G ---12/14--12-11------------------------------|
B ---------------------------------------------|
E ---------------------------------------------|
Comments