Secondhand Serenade - Awake Chords & Tabs

 

Awake Chords & Tabs

Secondhand Serenade Chords & Tabs

Version: 1 Type: Tab

Awake Tab

Tab by Sam and Seth

This should be close to 100% if there are any errors feel free to correct.
(Listen to song for correct strumming patterns)

Intro/Verse
E--------------------------------------------------------|
B--------1------------1-----------1-----------1----------|
G------0---0--------0---0-------2---2-------2---2--------|   X4
D----2-------2----2-------2---2-------2---2-------2------|
A--3------------3-----------0-----------0----------------|
E--------------------------------------------------------|

PreChorus :32 Seconds "and your..."

E-------------------------------------------------------|
B--------1---------------------------1-----------1------|
G------0---0-----------0-----------2---2-------2----2---|    X2
D----2-------2-------0---0-------2-------2---2--------2-|
A--3---------------2-------2---0-----------0------------|
E----------------3--------------------------------------|

Chorus :49 Seconds "Will you stay..."

E---------------------------------------------------------------------- 
B--------1-----------1-------------------------------------------------
G------0---0-------2---2----------0----------2---------------2---------
D----2-------2---2-------2------0---0------2--------0------3---3-------
A--3-----------0--------------2-------2--0--------2------3-------3-----
E---------------------------3-------------------3------1-----------1---

E---------------------------------------|
B---------------------------------------|
G--------2-----------0-----------0------|         X2
D------3---3-------0---0-------0---0----|
A----3-------3---2-------2---2-------2--|
E--1-----------3-----------3------------|

Bridge 1:21

E-------------------------------------------------------|
B--------1-----------1-----------1-----------1----------|
G------0-----------0---0-------2-----------2---2--------|   X2
D----2-----------2-------2---2-----------2-------2------|
A--3-----------3-----------0-----------0----------------|
E-------------------------------------------------------|

Verse 1:37 "I'm trying real hard..."

E--------------------------------------------------------|
B--------1------------1-----------1-----------1----------|
G------0---0--------0---0-------2---2-------2---2--------|   X2
D----2-------2----2-------2---2-------2---2-------2------|
A--3------------3-----------0-----------0----------------|
E--------------------------------------------------------|
[ Tab from: http://www.guitartabs.cc/tabs/s/secondhand_serenade/awake_tab.html ]
Prechorus 1:55 "If its a hero..." 
  
  If....want..stay..here
E--0-----3-----0-----0---------|
B--1-----0-----1-----1---------|
G--0-----0-----2-----2---------|    
D--2-----0-----2-----2---------|
A--3-----2-----0-----0---------|
E--x-----3-----x-----x---------|

 Whisper..Breath...Stay..here
E--0--------3--------0-----0---------|
B--1--------0--------1-----1---------|
G--0--------0--------2-----2---------|    
D--2--------0--------2-----2---------|
A--3--------2--------0-----0---------|
E--x--------3--------x-----x---------|

Chorus 2:10 "Will you stay..."
E--0------0------1------0-1-1----1-----1------1--------------| 
B--1------1------0------1-0-1----1-----0------0--------------|
G--0------2------0------2-0-2----2-----0------0--------------|   X2
D--2------2------0------2-0-3----3-----0------0--------------|
A--3------0------2------0-2-3----3-----2------2--------------|
E--x------x------3------x-3-1----1-----3------3--------------|

Bridge 2:42 "Say my name..."

        Say..        my..   name.. I just want...     Say     my
E--0-0-0--------0-0-0-------0------1-------------0-0-0---1-1-1-------
B--1-1-1--------1-1-1-------1------0-------------1-1-1---1-1-1-------
G--0-0-0--------2-2-2-------0------0-------------0-0-0---2-2-2-------
D--2-2-2--------2-2-2-------2------0-------------2-2-2---3-3-3-------
A--3-3-3--------0-0-0-------3------2-------------3-3-3---3-3-3-------
E--x-x-x--------x-x-x-------x------3-------------x-x-x---1-1-1-------

  Name..    know.. its true..
E--0---------1-----0--------
B--1---------0-----1--------
G--0---------0-----2--------
D--2---------0-----2--------
A--3---------2-----0--------
E--x---------3-----x--------

"Your changing me.." 3:02
                showed me......    so just say....so just say..     
E--0-------0------0---------1--------------0-------------1----|
B--1-------1------1---------0--------------1-------------0----|
G--0-------2------0---------0--------------2-------------0----|
D--2-------2------2---------0--------------2-------------0----|
A--3-------0------3---------2--------------0-------------2----|
E--x-------x------x---------3--------------x-------------3----|

Chorus 3:15 "That you'll stay.."

E--0------0------1------0-1-1----1-----1------1--------------| 
B--1------1------0------1-0-1----1-----0------0--------------|
G--0------2------0------2-0-2----2-----0------0--------------|   X2
D--2------2------0------2-0-3----3-----0------0--------------|
A--3------0------2------0-2-3----3-----2------2--------------|
E--x------x------3------x-3-1----1-----3------3--------------|

One last strum of C at 3:48 
E--0--
B--1--
G--0-- 
D--2--
A--3--
E--x--


Piano ends song