Sebadoh - Love Is Stronger Chords & Tabs

 

Love Is Stronger Chords & Tabs

Sebadoh Chords & Tabs

Version: 2 Type: Tab 0 ratings
1 star 2 stars 3 stars 4 stars 5 stars
comments

Love Is Stronger Tab

   
ARTIST:Sebadoh
SONG:Love is stronger
TABBED BY:Alan Coughlan
Email:whenifell@hotmail.com

N.B. capo at second fret
2'S indicate the capoed fret
intro:

--9---9---4----5---7---5/9-----9---9---4----5--4--2---2---|
--2-------2----2---------------2-------2----2---------2---|
--2-------2----2---------------2-------2----2---------2---|
--7-------2----4---------------7-------2----2---------4---|strum the last one a bit
--9-------4----5---------------9-------4----5---------4---|
--2-------2----2---------------2-------2----2---------2---|


repeat as vocals come in
then:

-----------------------------------------------------------------|
-----------5-----------------------------------------------------|
--------------2--------------------------------------------------|
--------4--------4-----------------------------------------------|
-----4-------------   then a little fiddly -----4----------------|
--2----------------          bit           -2-5---5--2-----------|

do that three more times
[ Tab from: http://www.guitartabs.cc/tabs/s/sebadoh/love_is_stronger_tab_ver_2.html ]
chord names for the verses arent correct
as the capo is on but u get the idea just play them


em                fiddly bit em           fiddly bit
I said I dont mind             when I do
em                        g
cause id do any thing for you
em                    fiddly bit em           fiddly bit
id watch us waste away            if you smile
em                       g
and if we lose it all in style
       cadd9
we had styyle


    cadd9                 em7
But im not happy where we are
cadd9                      em7       cadd9  em
but let me blame it on the stars,the words,the moon
em
love is stronger than the truth

second verse:
same stuff different words


solo:

----------------------------------------------|
--14h17---------------------------------------|
---------16 14--------------------------------|
----------------14 16-------------------------|
-----------------------14 16------------------|
----------------------------------------------|

play three times
Comments