Sebadoh - Dreams Chords & Tabs

 

Dreams Chords & Tabs

Sebadoh Chords & Tabs

Version: 1 Type: Bass Tab 0 ratings
1 star 2 stars 3 stars 4 stars 5 stars
comments

Dreams Bass Tab

   
Bass tab for Dreams by Sebadoh


Intro

G|----------------|
D|---4---4--2-----|
A|-3---3----------|
E|------------0---|  (repeat)


Verse

G|---------------------------------|
D|---------------------------------|
A|-3-3-3-3-3-3-3-3-----------------|
E|-----------------0-0-0-0-0-0-0-0-| (repeat)


Chorus
[ Tab from: http://www.guitartabs.cc/tabs/s/sebadoh/dreams_btab.html ]
G|-----------------------------------------------------------------|
D|-----------------------------------------------------------------|
A|-3-3-3-3-3-3-3-3-3-3-3-3-3-3-3-3-5-5-5-5-5-5-5-5-5-5-5-5-5-5-5-5-|
E|-----------------------------------------------------------------|

G|---------------------------------|
D|---------------------------------|
A|-2-2-2-2-2-2-2-2-2-2-2-2-2-2-2-2-|
E|---------------------------------| (repeat)


That's it.  It's easy...



Comments