Seazon Of The Fly - Eyes Chords & Tabs

 

Eyes Chords & Tabs

Seazon Of The Fly Chords & Tabs

Version: 1 Type: Tab

Eyes Tab

Seazon of the Fly/self titled/Eyes:
http://www.seazonofthefly.com/

   These guys are a local group, and let me tell you they rock. On their website they
a music video for this song so if you care to check it out go ahead. I went and saw them a
weeks ago, and it was an awsome show, so I've been compelled to tab at least part of 
song song. What I'm tabbing was actually taught to me by the guitarist of Seazon of the
who works at a music store a few miles from my house)so um... I'm pretty sure it would 
right. They are a really weird/very unique sounding band, and I think they know it.
[ Tab from: http://www.guitartabs.cc/tabs/s/seazon_of_the_fly/eyes_tab.html ]
d-------------------------------13-13-13---13-12-------------|
a--15-15-15----15-13---13--13-----------15---------13--13----|
f-----------14-------14--14--14------------------14--14--14--|
c------------------------------------------------------------|
g------------------------------------------------------------|
C------------------------------------------------------------|

d---------------------------------------------------------|
a--15-15-15----15-13---13--13-----------------------------|
f-----------14-------14--14--14--12--14--15--10--9h10-9>--|
c---------------------------------0---0---0---0--0--0-0>--|
g---------------------------------------------------------|
C---------------------------------------------------------|

The rest of the song is mostly chords, I'll probably tab the rest another time.