Seat 17 - Where The Hell Is Our Bass Player Chords & Tabs

 

Where The Hell Is Our Bass Player Chords & Tabs

Seat 17 Chords & Tabs

Version: 1 Type: Tab 0 ratings
1 star 2 stars 3 stars 4 stars 5 stars
comments

Where The Hell Is Our Bass Player Tab

Main Riff

E-------------------------------------------------------------------
B-------------------------------------------------------------------
G--------------0---0------------------------0---0-------------------
D--------------5---5p0-----3----------------5---5p3-----3p0-----3p0-
A-----------5----------3h5-----1p0-------5----------3h5-----3h5-----
E------3--------------------------1---3-----------------------------
[ Tab from: http://www.guitartabs.cc/tabs/s/seat_17/where_the_hell_is_our_bass_player_tab.html ]
E-------------------------------------------------------------------
B-------------------------------------------------------------------
G--------------0---0------------------------0---0-------------------
D--------------5---5p0-----3----------------5---5p3-----3-----------
A-----------5----------3h5-----1p0-------5----------3h5---1-0-------
E------3--------------------------1---3-----------------------------

D------5--------5--------3-----------------------3--------4-
A------5-4times-3-3times-1-letring-thenhit2times-3-4times-4-repeat all
E------3-----------------------------------------1--------2-

After that, you just do variations of the whole thing. Cool sounding song. 
Not many people have heard of Seat 17, but they’re awesome. It’s just 
guitar and drums.

peace out. Comments, threats, hate mail, suggestions, write
fast_food_junkie@yahoo.com
 
I’m looking for tabs for Stephen Lynch, Sublime, Nirvana, White Stripes, reggae/punk stuff.anything from the 60s,70s,90s.
Comments