Seapony - Dreaming Chords & Tabs

 

Dreaming Chords & Tabs

Seapony Chords & Tabs

Version: 2 Type: Tab 0 ratings
1 star 2 stars 3 stars 4 stars 5 stars
comments

Dreaming Tab

   
-------------------------------------------------------------------------------
                             Dreaming - Seapony
-------------------------------------------------------------------------------
Tabbed by: response

Tuning: Standart / Capo 3 for chords





Intro:  G Am Cmaj7 x2



   G               Am             Cmaj7                                          |
e|---------------------------------------------------------------------------|   |
B|---------------------------------------------------------------------------|   |
G|-10--12--12--10--12-----10-------------------------------------------------|   |
D|-----------------------------10-12--10----12----10----12--12---------------|   |
A|---------------------------------------------------------------------------|   |
E|---------------------------------------------------------------------------|   |
                                                                                 |  x2
                                                                                 |
   G               Am             Cmaj7                                          |
e|---------------------------------------------------------------------------|   |
B|---------------------------------------------------------------------------|   |
G|-10--12--12--10--12-----10-------------------------------------------------|   |
D|-----------------------------10-12--10----12----10----12-------------------|   |
A|---------------------------------------------------------------------------|   |
E|---------------------------------------------------------------------------|   |


   G               Am             Cmaj7                                          |
     When    -     ever           I                                              |
     I             know    my     dreams      are       coming                   |
e|---------------------------------------------------------------------------|   |
B|---------------------------------------------------------------------------|   |
G|-10----10-10-10-10-10-10---------------------------------------------------|   |
D|--------------------------------12-----12--12-----12--12--12---------------|   |
A|---------------------------------------------------------------------------|   |
E|---------------------------------------------------------------------------|   |
                                                                                 |  x2
                                                                                 |
       G               Am         Cmaj7                                          |   
   see yoooooooouuuuuuuuu    -    oooooouuuuuuuuuuuu                             |  
   truuuuuuueeeeeeeeeeeee    -    uuuuuuueeeeeeeeeee                             |
e|---------------------------------------------------------------------------|   |
B|---------------------------------------------------------------------------|   |
G|-10----10-10-10----10-10---------------------------------------------------|   |
D|--------------------------------12-----12--12-----12--12--12---------------|   |
A|---------------------------------------------------------------------------|   |
E|---------------------------------------------------------------------------|   |


    D                Em                  D                Em                     |
    Every     -      time I              close            my                     |
e|---------------------------------------------------------------------------|   |
B|---------------------------------------------------------------------------|   |  x2
G|--10-----10--10------------------------------------------------------------|   |
D|-------------------12--12--------------10---------------12-----------------|   |
A|---------------------------------------------------------------------------|   |
E|---------------------------------------------------------------------------|   |


   G               Am             Cmaj7                                          |
  (eyes)                                                                         |
e|---------------------------------------------------------------------------|   |
B|---------------------------------------------------------------------------|   |
G|-10--12--12--10--12-----10-------------------------------------------------|   |
D|-----------------------------10-12--10----12----10----12--12---------------|   |
A|---------------------------------------------------------------------------|   |
E|---------------------------------------------------------------------------|   |
                                                                                 |
                                                                                 |  x2
   G               Am             Cmaj7                                          |
e|---------------------------------------------------------------------------|   |
B|---------------------------------------------------------------------------|   |
G|-10--12--12--10--12-----10-------------------------------------------------|   |
D|-----------------------------10-12--10----12----10----12-------------------|   |
A|---------------------------------------------------------------------------|   |
E|---------------------------------------------------------------------------|   |


   G               Am             Cmaj7                                          |
     I             don't   know   what                to                         |
     My            heart   will   always             break  in                   |
e|---------------------------------------------------------------------------|   |
B|---------------------------------------------------------------------------|   |
G|-10----10-10-10-10-10-10---------------------------------------------------|   |
D|--------------------------------12-----12--12-----12--12--12---------------|   |
A|---------------------------------------------------------------------------|   |
E|---------------------------------------------------------------------------|   |
                                                                                 |
                                                                                 |  x2
       G               Am         Cmaj7                                          |   
   dooooooooooooooooooooo    -    oooooooooooooooooo                             |  
   twoooooooooooooooooooo    -    oooooooooooooooooo                             |
e|---------------------------------------------------------------------------|   |
B|---------------------------------------------------------------------------|   |
G|-10----10-10-10----10-10---------------------------------------------------|   |
D|--------------------------------12-----12--12-----12--12--12---------------|   |
A|---------------------------------------------------------------------------|   |
E|---------------------------------------------------------------------------|   |

[ Tab from: http://www.guitartabs.cc/tabs/s/seapony/dreaming_tab_ver_2.html ]
    D                Em                  D                Em                     |
    Every     -      time I              close            my                     |
e|---------------------------------------------------------------------------|   |
B|---------------------------------------------------------------------------|   |  x2
G|--10-----10--10------------------------------------------------------------|   |
D|-------------------12--12--------------10-----------------12---------------|   |
A|---------------------------------------------------------------------------|   |
E|---------------------------------------------------------------------------|   |


    G                      Em               G                      Em
    eyes
e|---------------------------------------------------------------------------|
B|---------------------------------------------------------------------------|
G|---------------------------------------------------------------------------|
D|--8~---8--8----8--8--8-/-10----8~~--------8~---8--8----8--8--8-/-10----8~~-|
A|---------------------------------------------------------------------------|
E|---------------------------------------------------------------------------|


    Am
    I     don't     wanna      be       like       everbody    
e|---------------------------------------------------------------------------|
B|---------------------------------------------------------------------------|
G|---------------------------------------------------------------------------|
D|--10~~~~~~~~~~~~~~~~~~~~---------------------------------------------------|
A|---------------------------------------------------------------------------|
E|---------------------------------------------------------------------------|


    G                      Em               Am
    else                                    I don't wanna be stuck on another
e|---------------------------------------------------------------------------|
B|---------------------------------------------------------------------------|
G|---------------------------------------------------------------------------|
D|--8~---8--8----8--8--8-/-10----8~~--------10~~~~~~~~~~~~~~~~~~~~~----------|
A|---------------------------------------------------------------------------|
E|---------------------------------------------------------------------------|


    G                                    Em                                      |
   (shelf)                                                                       |       
e|---------------------------------------------------------------------------|   |
B|---------------------------------------------------------------------------|   | x4
G|---------------------------------------------------------------------------|   |
D|--10~---10/12~-12--10------------------8~---8/10~-10--8--------------------|   |
A|---------------------------------------------------------------------------|   |
E|---------------------------------------------------------------------------|   |


    D             Em          D      Em
e|---------------------------------------------------------------------------|   |
B|---------------------------------------------------------------------------|   |
G|--10~---10~-10~------------------------------------------------------------|   | x2
D|-----------------12--12-----10-----12--------------------------------------|   |
A|---------------------------------------------------------------------------|   |
E|---------------------------------------------------------------------------|   |


    G       Am      Cmaj7                G        Am      Cmaj7   
e|---------------------------------------------------------------------------|
B|---------------------------------------------------------------------------|
G|---------------------------------------------------------------------------|
D|--8~~~~~~~~~~~~~~~~~~~~~~~~~~~~--------------------------------------------|
A|---------------------------------------------------------------------------|
E|---------------------------------------------------------------------------|


   G               Am             Cmaj7                                          |
     When    -     ever           I                                              |
     I             know    my     dreams      are       coming                   |
e|---------------------------------------------------------------------------|   |
B|---------------------------------------------------------------------------|   |
G|-10----10-10-10-10-10-10---------------------------------------------------|   |
D|--------------------------------12-----12--12-----12--12--12---------------|   |
A|---------------------------------------------------------------------------|   |
E|---------------------------------------------------------------------------|   |
                                                                                 |  x2
                                                                                 |
       G               Am         Cmaj7                                          |   
   see yoooooooouuuuuuuuu    -    oooooouuuuuuuuuuuu                             |  
   truuuuuuueeeeeeeeeeeee    -    uuuuuuueeeeeeeeeee                             |
e|---------------------------------------------------------------------------|   |
B|---------------------------------------------------------------------------|   |
G|-10----10-10-10----10-10---------------------------------------------------|   |
D|--------------------------------12-----12--12-----12--12--12---------------|   |
A|---------------------------------------------------------------------------|   |
E|---------------------------------------------------------------------------|   |


    D                Em                  D                Em                     |
    Every     -      time I              close            my                     |
e|---------------------------------------------------------------------------|   |
B|---------------------------------------------------------------------------|   |  x2
G|--10-----10--10------------------------------------------------------------|   |
D|-------------------12--12--------------10-----------------12---------------|   |
A|---------------------------------------------------------------------------|   |
E|---------------------------------------------------------------------------|   |


   G               Am             Cmaj7                                          |
  (eyes)                                                                         |
e|---------------------------------------------------------------------------|   |
B|---------------------------------------------------------------------------|   |
G|-10--12--12--10--12-----10-------------------------------------------------|   |
D|-----------------------------10-12--10----12----10----12--12---------------|   |
A|---------------------------------------------------------------------------|   |
E|---------------------------------------------------------------------------|   |
                                                                                 |  x2
                                                                                 |
   G               Am             Cmaj7                        (G)               |
e|---------------------------------------------------------------------------|   |
B|---------------------------------------------------------------------------|   |
G|-10--12--12--10--12-----10-------------------------------------------------|   |
D|-----------------------------10-12--10----12----10----12-----(8~~)---------|   |
A|---------------------------------------------------------------------------|   |
E|---------------------------------------------------------------------------|   |




************************************
| /   slide up
| ~   vibrato
************************************
Comments