Sean Love - My Song Chords & Tabs

 

My Song Chords & Tabs

Sean Love Chords & Tabs

Version: 1 Type: Tab 1 rating
1 star 2 stars 3 stars 4 stars 5 stars
comments

My Song Tab

                                           my song
writer: sean love


(intro)
----------------------------------------------------------------------------------------
----------------------------------------------------------------------------------------
-9-----9--------------------------------------------------------------------------------x2 with pm
-9-9-9-9x5---9-----9-----11-------11------9-----9---------------------------------------
-7-7-7-7-----9-9-9-9x5---11-11-11-11x5----9-9-9-9x5-------------------------------------
-------------7-7-7-7-----9--9--9--9-------7-7-7-7---------------------------------------

(rythem)
----------------------------------------------------------------------------------------
----------------------------------------------------------------------------------------
-----------9---9-9---11---11-11---4---4-4-----------------------------------------------x4
-9---9-9---9---9-9---11---11-11---4---4-4-----------------------------------------------
-9---9-9---7---7-7---9----9--9----2---2-2-----------------------------------------------
-7---7-7--------------------------------------------------------------------------------

(bridge)
----------------------------------------------------------------------------------------
----------------------------------------------------------------------------------------
------9-9----11-11---4------------------------------------------------------------------
-9-9--9-9----11-11---4------------------------------------------------------------------
-9-9--7-7----9--9----2------------------------------------------------------------------
-7-7------------------------------------------------------------------------------------

(chorus)
----------------------------------------------------------------------------------------
----------------------------------------------------------------------------------------
----------------------------------------------------------------------------------------x4
--9-------4------11-------6--------------------(9)--------------------------------------
--9-x8----4-x8---11-x8----6-x8-(x4)------------(9)-x4-----------------------------------
--7-------2------9--------4--------------------(4)--------------------------------------

(rythem)
----------------------------------------------------------------------------------------
----------------------------------------------------------------------------------------
-----------9---9-9---11---11-11---4---4-4-----------------------------------------------x4
-9---9-9---9---9-9---11---11-11---4---4-4-----------------------------------------------
-9---9-9---7---7-7---9----9--9----2---2-2-----------------------------------------------
-7---7-7--------------------------------------------------------------------------------

(bridge)
----------------------------------------------------------------------------------------
----------------------------------------------------------------------------------------
------9-9----11-11-----4----------------------------------------------------------------
-9-9--9-9----11-11-----4----------------------------------------------------------------
-9-9--7-7----9---9-----2----------------------------------------------------------------
-7-7------------------------------------------------------------------------------------

(chorus)
----------------------------------------------------------------------------------------
----------------------------------------------------------------------------------------
----------------------------------------------------------------------------------------x4
--9-------4------11-------6--------------------(9)--------------------------------------
--9-x8----4-x8---11-x8----6-x8-(x4)------------(9)-x4-----------------------------------
--7-------2------9--------4--------------------(4)--------------------------------------
[ Tab from: http://www.guitartabs.cc/tabs/s/sean_love/my_song_tab.html ]
(solo)
----------------------------------------------------------------------------------------
----------------------------------------------------------------------------------------
-----------9---------11---------4-------------------------------------------------------
-9---------9-x16-----11-x16-----4-x16---------------------------------------------------
-9-x16-----7---------9----------2-------------------------------------------------------
-7--------------------------------------------------------------------------------------

(solo cont.)
----------------------------------------------------------------------------------------
-7-(x8)-8-(x8)-9-(x8)-9-8-7---7-8-9-8-7-------------------------------------------------
----------------------------6-----------6~~---------------------------------------------
----------------------------------------------------------------------------------------
----------------------------------------------------------------------------------------
----------------------------------------------------------------------------------------

(solo cont.)
----------------------------------------------------------------------------------------
----------------------------------------------------------------------------------------
--------9---------11---------4----------------------------------------------------------
-9------9-x16-----11-x16-----4-x16------------------------------------------------------
-9-x16--7----------9---------2----------------------------------------------------------
-7--------------------------------------------------------------------------------------

(solo cont.)
----------------------------7~~---------8~~-----------9~~-------------------------------
-7-(x8)-8-(x8)-9-(x8)-9-8-7---7-8-9-8-7----7-8-9-8-7-----7-8-9-8-7----------------------
-------------------------------------------------------------------6~~~-----------------
----------------------------------------------------------------------------------------
----------------------------------------------------------------------------------------
----------------------------------------------------------------------------------------

(second guitar solo)
----------------------------------------------------------------------------------------
----------------------------------------------------------------------------------------
-9-----9--------------------------------------------------------------------------------x2 with pm
-9-9-9-9x5---9-----9----11-------11------9-----9----------------------------------------
-7-7-7-7-----9-9-9-9x5--11-11-11-11x5----9-9-9-9x5--------------------------------------
-------------7-7-7-7----9--9--9--9-------7-7-7-7----------------------------------------

(bridge)
-----------------------------------------------------------------------------------------
-----------------------------------------------------------------------------------------
------9-9-----11-11---4------------------------------------------------------------------
-9-9--9-9-----11-11---4------------------------------------------------------------------
-9-9--7-7-----9---9---2------------------------------------------------------------------
-7-7-------------------------------------------------------------------------------------

(chorus)
-----------------------------------------------------------------------------------------
-----------------------------------------------------------------------------------------
-----------------------------------------------------------------------------------------x2
--9-------4------11-------6------------------(9)-----------------------------------------
--9-x8----4-x8---11-x8----6-x8-(x4)----------(9)-x4--------------------------------------
--7-------2-------9-------4------------------(4)-----------------------------------------
(outro)
-----------------------------------------------------------------------------------------
-----------------------------------------------------------------------------------------
------9-9----11-11----4---4---4~~~-------------------------------------------------------
-9-9--9-9----11-11----4---4---4~~~-------------------------------------------------------
-9-9--7-7-----9---9---2---2---2~~~-------------------------------------------------------
-7-7-------------------------------------------------------------------------------------


this is a cool song i wrote and it sounds really cool on my acoustic guitar i havent played it all the way on my electric
but it should sound cool on it. for the parts i did play on the electric i used heavy distorcion.
this cant have any problems but i wrote it but if u can think of anythiong cool to add gimme a not at seanlove_2002@hotmail.com


Comments