Seals And Crofts - Summer Breeze Chords & Tabs

 

Summer Breeze Chords & Tabs

Seals And Crofts Chords & Tabs

Version: 1 Type: Chords 1 rating
1 star 2 stars 3 stars 4 stars 5 stars
comments

Summer Breeze Chords

   
Summer Breeze
Seal And Crofts
1972
Written by James Seals/Dash Crofts
Tabbed by Ray Scheidler 


Chords:

   Em7  Am7  Bm7  E   G   A Am7/D Bm7/E A/B  D
E---------------------3----------------------2----
B---8----5----7-----------2----5----7----5---3----
G---7----5----7---1-------2----5----7----6---2----
D---9----5----7---2-------2----5----7----7--------
A---7-------------2---2--------5----7-------------
E--------5----7-------3------------------7--------


Intro:

          Em7 Am7                 Em7 Am7
E-------------------------------------------------
B-------------------------------------------------
G-------------------------------------------------
D----------2-----------------------2--------------
A------2-------0---0-----------2-------0---0------
E--0-----------------------0----------------------


  Em7             Am7             Em7       Am7
E------------10----7------------------------------
B-------8---------------10----8----7--------------
G--9-----------------------------------9--7--9----
D-------------------------------------------------
A-------------------------------------------------
E-------------------------------------------------


  Em7             Am7             Em7       Am7
E------------10----7------------------------------
B-------8---------------10----8----7--------------
G--9-----------------------------------9--7--9----
D-------------------------------------------------
A-------------------------------------------------
E-------------------------------------------------


 E                G
See the curtains hangin' in the window

D                     A         E Am7
In the evening on a Friday night

E                  G
A little light a-shinin' thru the window

 D                   A              E
Let's me know everything's alright -ight



Chorus:

 Am7           Bm7
Summer breeze makes me feel fine

 Am7                            G (+ Riff below)
Blowin' thru the jasmine in my mind E--------------
                                    B--------------
                                    G--4-5-7-5-4---
                                    D------------5-
                                    A--------------
                                    E--------------


 Am7           Bm7 
Summer breeze makes me feel fine

 Am7                            G (+ Riff)
Blowin' thru the jasmine in my mind


 E             G            
See the paper layin' on the sidewalk
[ Tab from: http://www.guitartabs.cc/tabs/s/seals_and_crofts/summer_breeze_crd.html ]
D                        A          E    Am7
A little music from the house next door -oor

 E           G 
So I walk on up to the doorstep

   D                   A               E
Thru the screen and across the floor -oor


(Chorus)



   Em7            Am7         Em7           Am7
E-------------10---7------------------------------
B---------8-----------10----8--7------------------
G---9-----------------------------9-----7----9----
D-------------------------------------------------
A-------------------------------------------------
E-------------------------------------------------
  Sweet  days of  sum-mer the jasmine's in bloom


  Em7        Am7           Em7         Am7
E-------10---7------------------------------------
B-----8------------10-8-----7---------------------
G--9---------------------------9----7---9---------
D-------------------------------------------------
A-------------------------------------------------
E-------------------------------------------------
  Ju-ly is dressed up and play-ing her tune


              Am7/D      Bm7/E
E--------------------7-10-12----10---10---7-------
B----------8---10---------------------------------
G---7---9-----------------------------------------
D-------------------------------------------------
A-------------------------------------------------
E-------------------------------------------------
  When I come home from a hard day's work and 


         Am7/D             Bm7/E         A/B
E--10----10-12---12--12-12--14--10-----12-11------
B------------------------------------12------12-14
G-------------------------------------------------
D-------------------------------------------------
A-------------------------------------------------
E-------------------------------------------------
  You're waitin'there not a care in the world

 E               G
See the smile a-waitin' in the kitchen

 D                     A           E Am7
Food cookin' and the plate's for two

 E                   G        
Feel the arms that reach out to hold me

D                        A              E
In the evening when the day is through -ough

(Chorus)

Then fade on:


  Em7          Am7          Em7           Am7
E----------10---7---------------------------------
B------8------------10---8---7--------------------
G--9-------------------------------9---7---9------
D-------------------------------------------------
A-------------------------------------------------
E-------------------------------------------------


Comments