Seal - Kiss From A Rose Chords & Tabs

 

Kiss From A Rose Chords & Tabs

Seal Chords & Tabs

Version: 3 Type: Tab 0 ratings
1 star 2 stars 3 stars 4 stars 5 stars
comments

Kiss From A Rose Tab

Seal - Kiss From A Rose
Tabbed By: Tim Barr
MX ID: SpADeD
Date: 5/05/05
Email: send_in_the_klowns@hotmail.com
Midi: http://www.geocities.com/Heartland/Park/3689/kissrose.mid

Guitar 1:
E||--------------|--4------------|--------------|--------------|--------------|
B||--------------|---------------|--------------|--------------|--------------|
G||--------------|--5------------|--------------|--------------|--------------|
D||--------------|--6------------|--------------|--------------|--------------|
A||--------------|---------------|--------------|--------------|--------------|
E||--------------|--4------------|--------------|--------------|--------------|


                                                                              
--------------|--------------|--------------|--------------|----------4-6----|
--------------|--------------|--------------|--------------|-----------------|
--------------|--------------|--------------|--------------|----------0---6--|
--------------|--------------|--------------|--------------|-----------------|
--------------|--------------|--------------|--------------|-----------------|
--------------|--------------|--------------|--------------|-----------------|


                                                                   
--7------9-------|--6---------6----|--4------------|--------------|
------------7----|-------7---------|---------------|--------------|
--8---------8----|-----------------|--0------------|--------------|
---------9-------|--6---------6----|---------------|--------------|
-----------------|-------8---------|---------------|--------------|
-----------------|-----------------|---------------|--------------|


                                                                                
--------------|--------------|--------------|----------4--6--|--7------9--7----|
--------------|--------------|--------------|----------------|-----------------|
--------------|--------------|--------------|----------------|-----------------|
--------------|--------------|--------------|----------------|-----------------|
--------------|--------------|--------------|----------------|-----------------|
--------------|--------------|--------------|----------------|-----------------|


                                                                           
--6----4----2-----|--4--------4--2--|--4--------4--6--|--7------9--7----6-|
------------------|-----------------|-----------------|-------------------|
------------------|-----------------|-----------------|-------------------|
------------------|-----------------|-----------------|-------------------|
------------------|-----------------|-----------------|-------------------|
------------------|-----------------|-----------------|-------------------|


                                                                              
-----------6----|--4------------|--------------|--------------|--------------|
------7---------|---------------|--------------|--------------|--------------|
----------------|---------------|--------------|--------------|--------------|
----------------|---------------|--------------|--------------|--------------|
----------------|---------------|--------------|--------------|--------------|
----------------|---------------|--------------|--------------|--------------|


                                                                                
--------------|--------------|--------------|----------4--6--|--7-----9---7----|
--------------|--------------|--------------|----------------|-----------------|
--------------|--------------|--------------|----------------|-----------------|
--------------|--------------|--------------|----------------|-----------------|
--------------|--------------|--------------|----------------|-----------------|
--------------|--------------|--------------|----------------|-----------------|


                                                                         
--6----4----2-----|--4--------4--2--|--4--------4--6--|--7------9--7----|
------------------|-----------------|-----------------|-----------------|
------------------|-----------------|-----------------|-----------------|
------------------|-----------------|-----------------|-----------------|
------------------|-----------------|-----------------|-----------------|
------------------|-----------------|-----------------|-----------------|


                                                                         
--6---------6----|--4--------4--2---|--4--------4--6--|--7-----9--7-----|
-------7---------|------------------|-----------------|-----------------|
-----------------|------------------|-----------------|-----------------|
-----------------|------------------|-----------------|-----------------|
-----------------|------------------|-----------------|-----------------|
-----------------|------------------|-----------------|-----------------|


                                                                    
--6----------6--7-|--------9--7----|--6-------------|--------------|
-------7----------|----------------|-------7--------|--------------|
------------------|----------------|----------------|--------------|
------------------|----------------|----------------|--------------|
------------------|----------------|----------------|--------------|
------------------|----------------|----------------|--------------|


                                                                                
--------------|--------------|--------------|----------4--6--|--7-----9---7----|
--------------|--------------|--------------|----------------|-----------------|
--------------|--------------|--------------|----------------|-----------------|
--------------|--------------|--------------|----------------|-----------------|
--------------|--------------|--------------|----------------|-----------------|
--------------|--------------|--------------|----------------|-----------------|


                                                                         
--6----4----2-----|--4--------4--2--|--4--------4--6--|--7------9--7----|
------------------|-----------------|-----------------|-----------------|
------------------|-----------------|-----------------|-----------------|
------------------|-----------------|-----------------|-----------------|
------------------|-----------------|-----------------|-----------------|
------------------|-----------------|-----------------|-----------------|


                                                                    
--6---------6----|--4--------4--2---|--4------------|--------------||
-------7---------|------------------|---------------|--------------||
-----------------|------------------|---------------|--------------||
-----------------|------------------|---------------|--------------||
-----------------|------------------|---------------|--------------||
-----------------|------------------|---------------|--------------||






Guitar 2:
E|---------16--18--19-|-------21--19----18-|------16-----14----|
B|--------------------|--------------------|-------------------|
G|--------------------|--------------------|-------------------|
D|--------------------|--------------------|-------------------|
A|--------------------|--------------------|-------------------|
E|--------------------|--------------------|-------------------|


                                                               
--16--------16--14--|--16--------16--18-19-|--------21--19----|
--------------------|----------------------|------------------|
--------------------|----------------------|------------------|
--------------------|----------------------|------------------|
--------------------|----------------------|------------------|
--------------------|----------------------|------------------|


                                                                     
--18-----------18----|--16------------|--------------|--------------|
--------19-----------|----------------|--------------|--------------|
---------------------|----------------|--------------|--------------|
---------------------|----------------|--------------|--------------|
---------------------|----------------|--------------|--------------|
---------------------|----------------|--------------|--------------|


                                                                        
--------------|--------------|---------16--18--19-|-------21--19----18-|
--------------|--------------|--------------------|--------------------|
--------------|--------------|--------------------|--------------------|
--------------|--------------|--------------------|--------------------|
--------------|--------------|--------------------|--------------------|
--------------|--------------|--------------------|--------------------|


                                                                
------16-----14----|--16--------16--14--|--16--------16--18-19-|
-------------------|--------------------|----------------------|
-------------------|--------------------|----------------------|
-------------------|--------------------|----------------------|
-------------------|--------------------|----------------------|
-------------------|--------------------|----------------------|


                                                                         
--------21--19----|--18-----------18----|--16------------|--------------|
------------------|--------19-----------|----------------|--------------|
------------------|---------------------|----------------|--------------|
------------------|---------------------|----------------|--------------|
------------------|---------------------|----------------|--------------|
------------------|---------------------|----------------|--------------|


                                                                     
--------------|------16----14----|------------11-----|--------------|
--------------|------------------|------14-----------|--------------|
--------------|------------------|-------------------|--------------|
--------------|------------------|-------------------|--------------|
--------------|------------------|-------------------|--------------|
--------------|------------------|-------------------|--------------|


                                                                       
---------------|------16----14-----|------------11-----|--------------|
---------------|-------------------|------14-----------|--------------|
---------------|-------------------|-------------------|--------------|
---------------|-------------------|-------------------|--------------|
---------------|-------------------|-------------------|--------------|
---------------|-------------------|-------------------|--------------|


                                                                           
--------------|--19------------18-|---------------18--|--19------------18-|
--------------|-------------------|------19-----------|-------------------|
--------------|-------------------|-------------------|-------------------|
--------------|-------------------|-------------------|-------------------|
--------------|-------------------|-------------------|-------------------|
--------------|-------------------|-------------------|-------------------|


                                                                      
--------------|------16-----14----|------------11-----|--------------|
--------------|-------------------|------14-----------|--------------|
--------------|-------------------|-------------------|--------------|
--------------|-------------------|-------------------|--------------|
--------------|-------------------|-------------------|--------------|
--------------|-------------------|-------------------|--------------|


                                                                       
---------------|------16----14-----|------------11-----|--------------||
---------------|-------------------|------14-----------|--------------||
---------------|-------------------|-------------------|--------------||
---------------|-------------------|-------------------|--------------||
---------------|-------------------|-------------------|--------------||
---------------|-------------------|-------------------|--------------||






Guitar 3:
E|--------------|----------------|---------------|---------------|--------------|
B|--------------|--4-------------|--2------------|--1------------|--------------|
G|--------------|--4-------------|---------------|---------------|--------------|
D|--------------|--4-------------|--4------------|--1------------|--------------|
A|--------------|--2-------------|---------------|---------------|--------------|
E|--------------|----------------|--4------------|--0------------|--------------|


                                                               
---------------|---------------|---------------|--------------|
--4------------|--2------------|--1------------|--------------|
--4------------|---------------|--1------------|--------------|
--4------------|--4------------|---------------|--------------|
---------------|--4------------|---------------|--------------|
---------------|---------------|--2------------|--------------|


                                                                         
-----------------|-----------------|-----------------|------------------|
--1-----4--------|------1-----4----|------------0----|------------2-----|
-----1-----------|---------1-------|--1--------------|--3---------------|
-----------------|-----------------|-------2---------|-------4----------|
-----------------|-----------------|-----------------|------------------|
-----------------|-----------------|-----------------|------------------|


                                                                    
-----------------|--------------|-----------------|----------------|
--1---------4----|--------------|--1---------4----|----------------|
---------1-------|--------------|---------1-------|--1-------------|
-----------------|--------------|-----------------|-------2--------|
-----------------|--------------|-----------------|----------------|
-----------------|--------------|-----------------|----------------|


                                                                     
-----------------|-----------------|----------------|---------------|
--------2--------|--1-----------1--|--4-------------|--4------------|
--3--------------|-----------1-----|-------------1--|---------------|
-----4-----------|-----------------|----------------|---------------|
-----------------|-----------------|----------------|---------------|
-----------------|-----------------|----------------|---------------|


                                                                      
--------2--------|--1--------------|-----------------|---------------|
-----2-----------|-----2-----------|--4--1-----------|--1------------|
--3--------------|--------1--------|--------1--------|--1------------|
-----------------|-----------------|-----------------|---------------|
-----------------|-----------------|-----------------|---------------|
-----------------|-----------------|-----------------|---------------|


                                                                       
---------------|------------------|----------------|------------------|
--0------------|--0----------0----|-------2--------|--0----------0----|
---------------|----------1-------|--3-------------|----------1-------|
--1------------|-------2----------|----------------|-------2----------|
---------------|------------------|----------------|------------------|
---------------|------------------|----------------|------------------|


                                                                      
----------------|-----------------|--4------------|------------------|
-------2--------|--1---------4----|---------------|--4-----4----4----|
--3-------------|-------1---------|---------------|--5-----5----5----|
----------------|-----------------|---------------|-----6------------|
----------------|-----------------|---------------|------------------|
----------------|-----------------|---------------|------------------|


                                                             
-------------------|-------------------|--------------------|
--4-----4-----1----|--4-----4-----4----|--2-----2-----2-----|
--5-----5-----3----|--4--1--4-----4----|--3-----3-----3-----|
-----6-------------|-------------------|-----4--------------|
-------------------|-------------------|--------------------|
-------------------|-------------------|--------------------|


                                                             
--------------------|-------------------|-------------------|
--4-----4-----4-----|--4-----4-----4----|--4-----4-----4----|
--5--1--5-----5-----|--5-----5-----5----|--4-----4-----4----|
--------------------|-----6-------------|-----6-------------|
--------------------|-------------------|-------------------|
--------------------|-------------------|-------------------|


                                                             
-------------------|--------------------|-------------------|
--2-----2-----2----|--4-----4-----4-----|--4-----4-----4----|
--3-----3-----3----|--5--1--5-----5-----|--5-----5-----5----|
-----4-------------|--------------------|-----6-------------|
-------------------|--------------------|-------------------|
-------------------|--------------------|-------------------|


                                                              
-------------------|--------------------|--------------------|
--4-----4-----4----|--2-----2-----2-----|--4-----4-----4-----|
--4-----4-----4----|--3-----3-----3-----|--4--1--4-----4-----|
-----6-------------|-----4--------------|--------------------|
-------------------|--------------------|--------------------|
-------------------|--------------------|--------------------|


                                                                    
-------------------|---------------|--------------|----------------|
--2-----2-----2----|--4------------|--------------|--4-------------|
--3-----3-----3----|--5------------|--------------|--4-------------|
-----4-------------|--6------------|--------------|--4-------------|
-------------------|--0------------|--------------|--2-------------|
-------------------|---------------|--------------|----------------|


                                                                               
---------------|---------------|--------------|---------------|---------------|
--2------------|--1------------|--------------|--4------------|--2------------|
---------------|---------------|--------------|--4------------|---------------|
--4------------|--1------------|--------------|--4------------|--4------------|
---------------|---------------|--------------|---------------|--4------------|
--4------------|--0------------|--------------|---------------|---------------|


                                                                   
---------------|--------------|-----------------|-----------------|
--1------------|--------------|--1-----4--------|------1-----4----|
--1------------|--------------|-----1-----------|---------1-------|
---------------|--------------|-----------------|-----------------|
---------------|--------------|-----------------|-----------------|
--2------------|--------------|-----------------|-----------------|


                                                                      
-----------------|------------------|-----------------|--------------|
------------0----|------------2-----|--1---------4----|--------------|
--1--------------|--3---------------|---------1-------|--------------|
-------2---------|-------4----------|-----------------|--------------|
-----------------|------------------|-----------------|--------------|
-----------------|------------------|-----------------|--------------|


                                                                     
-----------------|----------------|-----------------|---------------|
--1---------4----|----------------|--------2--------|--1------------|
---------1-------|--1-------------|--3--------------|--1------------|
-----------------|-------2--------|-----4-----------|---------------|
-----------------|----------------|-----------------|---------------|
-----------------|----------------|-----------------|---------------|


                                                                     
----------------|---------------|--------2--------|-----------------|
--4-------------|--4------------|-----2-----------|--4--1-----------|
-------------1--|---------------|--3--------------|--------1--------|
----------------|---------------|-----------------|-----------------|
----------------|---------------|-----------------|-----------------|
----------------|---------------|-----------------|-----------------|


                                                                      
-----------------|-----------------|-----------------|---------------|
--4--1-----------|--4------0--4----|--2---------2----|--1------------|
--------1--------|-----------------|-------3---------|--1------------|
-----------------|-----------------|-----------------|---------------|
-----------------|-----------------|-----------------|---------------|

-----------------|-----------------|-----------------|---------------|


                                                                          
----------------|-------------------|-----------------|------------------|
--0-------------|--0----------0-----|------------2----|--0----------0----|
--1-------------|--1-------1--------|--3--------------|----------1-------|
----------------|-------2-----------|-------4---------|-------2----------|
----------------|-------------------|-----------------|------------------|
----------------|-------------------|-----------------|------------------|


                                                                      
-----------------|----------------|--4------------|------------------|
--2--------------|--4-------------|--4------------|--4-----4----4----|
------------3----|--5-------------|---------------|--5-----5----5----|
--3------4--6----|--6----------6--|---------------|-----6------------|
-----------------|----------------|---------------|------------------|
-----------------|----------------|---------------|------------------|


                                                             
-------------------|-------------------|--------------------|
--4-----4-----1----|--4-----4-----4----|--2-----2-----2-----|
--5-----5-----3----|--4--1--4-----4----|--3-----3-----3-----|
-----6-------------|-------------------|-----4--------------|
-------------------|-------------------|--------------------|
-------------------|-------------------|--------------------|


                                                             
--------------------|-------------------|-------------------|
--4-----4-----4-----|--4-----4-----4----|--4-----4-----4----|
--5--1--5-----5-----|--5-----5-----5----|--4-----4-----4----|
--------------------|-----6-------------|-----6-------------|
--------------------|-------------------|-------------------|
--------------------|-------------------|-------------------|


                                                             
-------------------|--------------------|-------------------|
--2-----2-----2----|--4-----4-----4-----|--4-----4-----4----|
--3-----3-----3----|--5--1--5-----5-----|--5-----5-----5----|
-----4-------------|--------------------|-----6-------------|
-------------------|--------------------|-------------------|
-------------------|--------------------|-------------------|


                                                              
-------------------|--------------------|--------------------|
--4-----4-----4----|--2-----2-----2-----|--4-----4-----4-----|
--4-----4-----4----|--3-----3-----3-----|--4--1--4-----4-----|
-----6-------------|-----4--------------|--------------------|
-------------------|--------------------|--------------------|
-------------------|--------------------|--------------------|


                                                                              
-------------------|---------------|--------------|--11------------------11--|
--2-----2-----2----|--4------------|--------------|------12------------------|
--3-----3-----3----|--5------------|--------------|----------13------13------|
-----4-------------|--6------------|--------------|--------------14----------|
-------------------|--0------------|--------------|--------------------------|
-------------------|---------------|--------------|--------------------------|


                                                                       
--9--------------9------|--11--8-----8--11--8--|--11--8-----8--11--8--|
-----11------11---------|---------9------------|---------9------------|
---------11---------11--|----------------------|----------------------|
------------------------|----------------------|----------------------|
------------------------|----------------------|----------------------|
------------------------|----------------------|----------------------|


                                                                           
--11------------------11--|--9--------------9------|--11--8-----8--11--8--|
------12------------------|-----11------11---------|---------9------------|
----------13------13------|---------11---------11--|----------------------|
--------------14----------|------------------------|----------------------|
--------------------------|------------------------|----------------------|
--------------------------|------------------------|----------------------|


                                                                           
--11--8-----8--11--8--|--11------------------11--|--9--------------9------|
---------9------------|------12------------------|-----11------11---------|
----------------------|----------13------13------|---------11---------11--|
----------------------|--------------14----------|------------------------|
----------------------|--------------------------|------------------------|
----------------------|--------------------------|------------------------|


                                                                       
--11------------------11--|--9--------------9----|--------------------|
------12------------------|-----11------11-------|--------------7-----|
----------13------13------|---------11-----------|--11-------6--------|
--------------14----------|----------------------|--------8--------8--|
--------------------------|----------------------|--------------------|
--------------------------|----------------------|--------------------|


                                                                                
-------------------|--4-------1--4-----|--2----------2-----|--2----------2-----|
--6----------6-----|-------2--------2--|-------0--4-----0--|----------2--------|
----------6-----3--|-------------------|-------------------|-------3--------3--|
-------8-----------|-------------------|-------------------|-------------------|
-------------------|-------------------|-------------------|-------------------|
-------------------|-------------------|-------------------|-------------------|


                                                                                
--1----------1-----|--4-------1--4-----|--2----------2-----|--2----------2-----|
----------2--------|-------2--------2--|-------0--4-----0--|----------2--------|
-------3--------3--|-------------------|-------------------|-------3--------3--|
-------------------|-------------------|-------------------|-------------------|
-------------------|-------------------|-------------------|-------------------|
-------------------|-------------------|-------------------|-------------------|


                                                                                
--1----------1-----|--4-------1--4-----|--2----------2-----|--2----------2-----|
----------2--------|-------2--------2--|-------0--4-----0--|----------2--------|
-------3--------3--|-------------------|-------------------|-------3--------3--|
-------------------|-------------------|-------------------|-------------------|
-------------------|-------------------|-------------------|-------------------|
-------------------|-------------------|-------------------|-------------------|


                                                                               
--1----------1-----|--4-------1--4-----|--2--------2--7-----|-----------------|
----------2--------|-------2-----------|-----0--4--------7--|--------4--------|
-------3--------3--|-------------------|--------------------|--5--------------|
-------------------|-------------------|--------------------|-----6-----------|
-------------------|-------------------|--------------------|-----------------|
-------------------|-------------------|--------------------|-----------------|


                                                                         
-----------------|-----------------|------------------|-----------------|
------------4----|------------0----|------------2-----|--1---------4----|
------5----------|-----------------|--3---------------|---------1-------|
---------6-------|--6--------------|-------4----------|-----------------|
-----------------|-------7---------|------------------|-----------------|
-----------------|-----------------|------------------|-----------------|


                                                                  
--------------|----------------|-----------------|---------------|
--------------|----------------|--------2--------|--1------------|
--------------|--1-------------|--3--------------|--1------------|
--------------|-------2--------|-----4-----------|---------------|
--------------|----------------|-----------------|---------------|
--------------|----------------|-----------------|---------------|


                                                                   
--------------|---------------|--------2--------|-----------------|
--------------|--4------------|-----2-----------|--4--1-----------|
--------------|---------------|--3--------------|--------1--------|
--------------|---------------|-----------------|-----------------|
--------------|---------------|-----------------|-----------------|
--------------|---------------|-----------------|-----------------|


                                                                      
-----------------|-----------------|-----------------|---------------|
--4--1-----------|--4------0--4----|--2---------2----|--1------------|
--------1--------|-----------------|-------3---------|--1------------|
-----------------|-----------------|-----------------|---------------|
-----------------|-----------------|-----------------|---------------|
-----------------|-----------------|-----------------|---------------|


                                                                          
----------------|-------------------|-----------------|------------------|
--0-------------|--0----------0-----|------------2----|--0----------0----|
--1-------------|--1-------1--------|--3--------------|----------1-------|
----------------|-------2-----------|-------4---------|-------2----------|
----------------|-------------------|-----------------|------------------|
----------------|-------------------|-----------------|------------------|


                                                                      
-----------------|----------------|--4------------|------------------|
--2--------------|--4-------------|--4------------|--4-----4----4----|
------------3----|--5-------------|---------------|--5-----5----5----|
--3------4--6----|--6----------6--|---------------|-----6------------|
-----------------|----------------|---------------|------------------|
-----------------|----------------|---------------|------------------|


                                                             
-------------------|-------------------|--------------------|
--4-----4-----1----|--4-----4-----4----|--2-----2-----2-----|
--5-----5-----3----|--4--1--4-----4----|--3-----3-----3-----|
-----6-------------|-------------------|-----4--------------|
-------------------|-------------------|--------------------|
-------------------|-------------------|--------------------|


                                                             
--------------------|-------------------|-------------------|
--4-----4-----4-----|--4-----4-----4----|--4-----4-----4----|
--5--1--5-----5-----|--5-----5-----5----|--4-----4-----4----|
--------------------|-----6-------------|-----6-------------|
--------------------|-------------------|-------------------|
--------------------|-------------------|-------------------|


                                                             
-------------------|--------------------|-------------------|
--2-----2-----2----|--4-----4-----4-----|--4-----4-----4----|
--3-----3-----3----|--5--1--5-----5-----|--5-----5-----5----|
-----4-------------|--------------------|-----6-------------|
-------------------|--------------------|-------------------|
-------------------|--------------------|-------------------|


                                                              
-------------------|--------------------|--------------------|
--4-----4-----4----|--2-----2-----2-----|--4-----4-----4-----|
--4-----4-----4----|--3-----3-----3-----|--4--1--4-----4-----|
-----6-------------|-----4--------------|--------------------|
-------------------|--------------------|--------------------|
-------------------|--------------------|--------------------|


                                                                       
-------------------|---------------|--------------|-------------------|
--2-----2-----2----|--4------------|--------------|--4-----4-----4----|
--3-----3-----3----|--5------------|--------------|--4-----4-----4----|
-----4-------------|--6------------|--------------|-----6-------------|
-------------------|--0------------|--------------|-------------------|
-------------------|---------------|--------------|-------------------|


                                                              
--------------------|--------------------|-------------------|
--2-----2-----2-----|--4-----4-----4-----|--4-----4-----4----|
--3-----3-----3-----|--5--1--5-----5-----|--5-----5-----5----|
-----4--------------|--------------------|-----6-------------|
--------------------|--------------------|-------------------|
--------------------|--------------------|-------------------|


                                                             
-------------------|-------------------|--------------------|
--4-----4-----4----|--2-----2-----2----|--4-----4-----4-----|
--4-----4-----4----|--3-----3-----3----|--5--1--5-----5-----|
-----6-------------|-----4-------------|--------------------|
-------------------|-------------------|--------------------|
-------------------|-------------------|--------------------|


                                                             
-------------------|-------------------|--------------------|
--4-----4-----4----|--4-----4-----4----|--2-----2-----2-----|
--5-----5-----5----|--4-----4-----4----|--3-----3-----3-----|
-----6-------------|-----6-------------|-----4--------------|
-------------------|-------------------|--------------------|
-------------------|-------------------|--------------------|


                                                                        
--------------------|-------------------|---------------|--------------|
--4-----4-----4-----|--2-----2-----2----|--4------------|--------------|
--4--1--4-----4-----|--3-----3-----3----|--5------------|--------------|
--------------------|-----4-------------|--6------------|--------------|
--------------------|-------------------|--0------------|--------------|
--------------------|-------------------|---------------|--------------|


                                                                           
--11------------------11--|--9--------------9------|--11--8-----8--11--8--|
------12------------------|-----11------11---------|---------9------------|
----------13------13------|---------11---------11--|----------------------|
--------------14----------|------------------------|----------------------|
--------------------------|------------------------|----------------------|
--------------------------|------------------------|----------------------|


                                                                           
--11--8-----8--11--8--|--11------------------11--|--9--------------9------|
---------9------------|------12------------------|-----11------11---------|
----------------------|----------13------13------|---------11---------11--|
----------------------|--------------14----------|------------------------|
----------------------|--------------------------|------------------------|
----------------------|--------------------------|------------------------|


                                                                      
--11--8-----8--11--8--|--11------------|--------------|--------------||
---------9------------|----------------|--------------|--------------||
----------------------|----------------|--------------|--------------||
----------------------|----------------|--------------|--------------||
----------------------|----------------|--------------|--------------||
----------------------|----------------|--------------|--------------||







Guitar 4:
E|--------------|--------------|--------------|--8------------|----------------|
B|--------------|--------------|--------------|---------------|----------------|
G|--------------|--------------|--------------|--8------------|--8-------------|
D|--------------|--------------|--------------|---------------|--10------------|
A|--------------|--------------|--------------|---------------|----------------|
E|--------------|--------------|--------------|---------------|--7-------------|


                                                                            
-------------------|-------------------|------------------|----------------|
-------------4-----|--4----------4-----|--2---------2-----|--4-------------|
----------5--------|----------1--------|--3---------3-----|----------------|
-------6-----------|--0----2-----------|-------4----------|----------------|
-------------------|--2----------------|--0---------------|--2-------------|
--4-------------4--|--0-------------0--|---------------2--|--4----------4--|


                                                                               
--4----------------|--3---------------|-------------------|-------------------|
----------1--4-----|--4------4--------|--0----------4-----|--2----------------|
-------1-----------|------------5-----|--3-------1--------|--3----------3-----|
-------------------|------------------|--2----2-----------|-------4-----6-----|
----------------6--|------------------|-------------------|-------------------|
----------------4--|---------------4--|----------------0--|----------2-----2--|


                                                                           
----------------|------------------|--4---------------|--2----------2-----|
--4-------------|--4---------------|------------4-----|--2-------2--------|
----------------|--5------------5--|------------------|-------3-----------|
--2-------------|------------6-----|-------6----------|----------------4--|
--1-------------|------------------|------------------|--0----------------|
-------------4--|--4------4--------|---------------4--|-------------------|


                                                                      
--1----------1-----|----------------|----------------|---------------|
--2-------2--------|--4-------------|--4-------------|---------------|
-------1-----------|--5-------------|--5-------------|--4------------|
-------------------|----------------|-------6--------|--6------------|
----------------4--|--2-------------|----------------|--6------------|
--0----------------|-------------4--|----------------|--4------------|


                                                                      
------------------|---------------|------------------|---------------|
--0---------------|---------------|--0---------0-----|---------------|
------------------|--3------------|--1---------------|---------------|
--6---------6--4--|--4------------|---------2--------|--3------------|
--7------7--------|---------------|------------------|--0------------|
--0------------0--|--2------------|--3------------0--|--2------------|


                                                             
-------------------|--4------------------|--4---------4-----|
--4----------4-----|--------4-----0------|--4---------------|
----------1--------|--------------8------|--5---------------|
--1-------------6--|-----6--------10-----|--6------6--------|
--2----------------|---------------------|------------------|
--4----4--------4--|-----------4---------|--4------------4--|


                                                                              
--4----------------|------------------|-------------------|------------4-----|
--4-----4----------|--4---------4-----|--2----------2-----|--4---------------|
-----5--8----------|--4---------4-----|--3-------3--------|--5------1--------|
----------------2--|------------6-----|-------4-----------|------------------|
--6----------------|--2------2--------|-------------------|--2---------------|
-------------4-----|---------0-----0--|--2-------------2--|---------------4--|


                                                                           
-------------------|------------------|----------------|------------------|
--4--4--4----------|--4---------4-----|--2-------------|------------------|
--5-----5----------|------------4-----|--3--------2----|--3---------------|
----------------6--|--4------1--------|--4--------4----|--6------6--------|
-------------------|--7---------------|-----------8----|--11--------------|
-------------4-----|---------2-----2--|----------------|---------------4--|


                                                                                
-------------------|-------------------|-------------------|-------------------|
--4--4--4----4-----|-------------4-----|-------------------|--0----------4-----|
--5-----5----------|--4-------1--------|--3-------------3--|--4-------1--4-----|
-------------------|--4----2-----4-----|--4----4-----------|-------2-----------|
-------------------|-------------------|--7----------------|--6----------------|
----------------4--|----------------0--|--------------2----|----------------0--|


                                                                  
------------------|---------------|--------------|--2------------|
------------------|--4------------|--------------|--4------------|
--2---------1-----|--5------------|--------------|---------------|
--4---------4-----|--6------------|--------------|---------------|
--8---------9-----|---------------|--------------|---------------|
---------2-----2--|--4------------|--------------|---------------|


                                                                               
--6------------|--4------------|--------------|--7------------|--6------------|
---------------|---------------|--------------|---------------|---------------|
---------------|--0------------|--------------|--8------------|--6------------|
--6------------|---------------|--------------|---------------|---------------|
---------------|---------------|--------------|---------------|---------------|
---------------|---------------|--------------|---------------|---------------|


                                                                
--4------------|--------------|---------------|----------------|
---------------|--------------|--0------------|-----------4----|
--5------------|--------------|--0------------|----------------|
---------------|--------------|--6------------|------6---------|
---------------|--------------|---------------|----------------|
--4------------|--------------|---------------|----------------|


                                                                       
-----------------|-----------------|---------------|-------4-------3--|
--0---------4----|--2---------2----|--4------------|------------------|
--3--------------|--3--------------|---------------|------------1-----|
-------2---------|-------4---------|--1------------|------------------|
-----------------|-----------------|--6------------|------------------|
--0--------------|-----------------|---------------|--4---------------|


                                                                        
----------------|------------------|-------------------|---------------|
--4-------------|--0---------0-----|-------------2-----|--4------------|
----------------|------------------|--1----------3-----|--5------------|
----------------|-------2----------|--4----4-----------|---------------|
----------------|--2---------------|-------------------|--2------------|
-------------4--|--0---------------|--2-------2-----2--|---------------|


                                                                      
------11----4----|----------------|------------------|---------------|
-----------------|--4-------------|------------2-----|--4------------|
-----------------|--4-------------|--3---------3-----|--5------------|
-----------------|--6-------------|--6----4----------|---------------|
-----------------|----------------|------------------|---------------|
-----------------|--0----------0--|---------------2--|---------------|


                                                                          
------------------|-----------------|-------------------|----------------|
------------4-----|--4--------------|--2----------2-----|----------------|
------------------|-----------------|--3----------3-----|--5-------------|
---------6--------|--0--------2-----|-------4-----------|--6-------------|
------------------|-----------------|-------------------|----------------|
------4--------4--|--------------0--|----------2-----2--|--4----------4--|


                                                                         
----------------|------------------|-----------------|------------------|
--0-------------|--0---------0-----|--2---------2----|--0---------0-----|
--1-------------|--1---------------|--3--------------|------------1-----|
----------------|---------2--------|-------4---------|--1----2----------|
----------------|------------------|-----------------|------------------|
--2-------------|--0------------0--|--2--------------|---------------0--|


                                                                             
-------------------|------------------|--------4---------|--4---------4-----|
-------------2-----|------------------|--4--4-------4----|--4---------------|
--1----------3--3--|--3---------------|--5----------8----|--5---------------|
-------4-----------|--6---------6-----|------------------|--6------6--------|
--4----------------|--6---------------|------------------|------------------|
--2-------2-----2--|---------4-----4--|------------------|--4------------4--|


                                                                              
--4----------------|------------------|-------------------|------------4-----|
--4-----4----------|--4---------4-----|--2----------2-----|--4---------------|
-----5--8----------|--4---------4-----|--3-------3--------|--5------1--------|
----------------2--|------------6-----|-------4-----------|------------------|
--6----------------|--2------2--------|-------------------|--2---------------|
-------------4-----|---------0-----0--|--2-------------2--|---------------4--|


                                                                           
-------------------|------------------|----------------|------------------|
--4--4--4----------|--4---------4-----|--2-------------|------------------|
--5-----5----------|------------4-----|--3--------2----|--3---------------|
----------------6--|--4------1--------|--4--------4----|--6------6--------|
-------------------|--7---------------|-----------8----|--11--------------|
-------------4-----|---------2-----2--|----------------|---------------4--|

[ Tab from: http://www.guitartabs.cc/tabs/s/seal/kiss_from_a_rose_tab_ver_3.html ]
                                                                                
-------------------|-------------------|-------------------|-------------------|
--4--4--4----4-----|-------------4-----|-------------------|--0----------4-----|
--5-----5----------|--4-------1--------|--3-------------3--|--4-------1--4-----|
-------------------|--4----2-----4-----|--4----4-----------|-------2-----------|
-------------------|-------------------|--7----------------|--6----------------|
----------------4--|----------------0--|--------------2----|----------------0--|


                                                                     
------------------|---------------|--------------|------------------|
------------------|--4------------|--------------|--4---------------|
--2---------1-----|--5------------|--------------|--4---------1-----|
--4---------4-----|--6------------|--------------|--6------2--------|
--8---------9-----|---------------|--------------|------------------|
---------2-----2--|--4------------|--------------|--0------------0--|


                                                                            
-------------------|----------------|--4----------------|------------------|
--2----------2-----|--1-------------|-----4-------------|--4------------4--|
-------------------|--3-------------|--------5----------|--4---------1-----|
--4----4--4--------|----------------|-------------6-----|---------2--------|
-------------------|----------------|-------------------|--2---------------|
----------------2--|--2----------4--|----------------4--|------------------|


                                                                             
-------------------|----------------|--4-----------------|------------------|
--2----------2-----|--4-------------|-----4--------------|--4------------4--|
-------------------|----------------|--------5-----------|--4---------1-----|
-------4-----------|--1-------------|--------------6-----|---------2--------|
--4----------------|--6-------------|--------------------|--2---------------|
--2-------2-----2--|-------------4--|-----------4-----4--|---------------0--|


                                                                           
-------------------|------------------|-------------------|--2------------|
--2----------2-----|--0------------4--|--2----------2-----|--2------------|
-------------------|--4---------1-----|-------------------|--3------------|
--3----4-----------|---------2--------|--3----4-----------|---------------|
-------------------|--6---------------|-------------------|---------------|
----------2-----2--|---------------0--|----------2--------|--2------------|


                                                                 
----------------|--0------------|---------------|---------------|
--2-------------|--2------------|--7------------|--7------------|
--3-------------|--5------------|---------------|---------------|
--6-------------|---------------|--4------------|--8------------|
----------------|---------------|--9------------|--7------------|
----------------|---------------|---------------|---------------|


                                                                 
----------------|--4------------|---------------|---------------|
--6-------------|--6------------|--7------------|--7------------|
--6-------------|---------------|---------------|---------------|
----------------|---------------|--4------------|--3------------|
--4-------------|--7------------|--9------------|--7------------|
----------------|--0------------|---------------|---------------|


                                                                 
------------4---|---------------|--2------------|--2------------|
--6-------------|--0------------|---------------|--2------------|
--6-------------|--1------------|--3------------|--3------------|
----------------|--6------------|--0------------|---------------|
--4-------------|--4------------|---------------|---------------|
----------------|---------------|---------------|--2------------|


                                                                              
--1-------------|--0-----------4--|-----------2--7--2--|--16-----------------|
--2-------------|--2--------2-----|--2--0--4-----4-----|--16-----------------|
--3-------------|-----------------|--------------------|--17----------13-----|
----------------|--1--------------|--------------------|--18-----------------|
----------------|-----------------|--2-----------------|---------------------|
----------------|--4--------------|--------------------|--4-------16------4--|


                                                                               
--------------------|-------------------|-------------------|-----------4-----|
-----2--------------|--0----------0-----|--2----------2-----|--0--------------|
--3--5--3-----------|--1----1-----3-----|----------------3--|--0--------------|
--1-----6-----6-----|--4-------2--------|--3----4-----1-----|--6-----------6--|
--------------------|-------------------|-------------------|--0--------------|
-----------4-----4--|----------------0--|----------2--------|--------------4--|


                                                                           
-------------------|------------------|-------------------|---------------|
--4----------4-----|--4----0----------|--2-----2----------|--1------------|
--5-------5--------|-------1----------|--3-----3----------|--1------------|
--8----6-----------|--4----4----2-----|--4-----4-----0----|--4------------|
-------------------|--7---------------|--------------2----|---------------|
----------4-----4--|---------------0--|-------------------|---------------|


                                                                                
------0---------|--7---------0-----|--6-----4--9--6-----|--8----4--16----------|
------11--------|------------------|-----7-----------2--|--------------16------|
------11--------|------------------|--------------------|------------------13--|
----------------|--9---------------|--------------------|----------------------|
----------------|--9------7--------|--------------------|----------------------|
----------------|---------------0--|-----------------2--|--4-------------------|


                                                                       
-----------4--8----4--4-|----0--4--7--4--0--9-|--------------9-----11-|
--13--------------------|---------------------|----7--9--11-----------|
------------------------|---------------------|-----------------------|
------------------------|---------------------|-----------------------|
------------------------|----------------2----|-----------------------|
--------4--------4------|---------------------|----------9------2-----|


                                                                       
-------8---16---------11-|------------------|-------------------------|
----9---------16---------|---------------12-|---------------12-----11-|
------------------13--12-|------------------|----------------------13-|
-------------------------|---------------14-|-------14--13------------|
-------------------------|---------------14-|-------------------------|
-------------------------|------------------|-----------12------0-----|


                                                                     
-------------9------7-|-------------7-----9-|-------2-----9------11-|
-------------11-----5-|-------5-----9-------|-------------11--------|
-------11-------------|-------------------6-|--------------------12-|
----------------------|---------------------|-----------------------|
----------------------|----------7----------|-----------------------|
-----------------2----|----------------0--2-|----------2------2-----|


                                                                     
----------16------------|-------4--12--4--11--4-|-----------4-----4-|
-------9-------------16-|----------13-----13--4-|-----------------4-|
--------------13-----20-|----------15-----16--5-|-------------------|
------------------------|---------------------6-|--------6----------|
------------------------|-----------------------|-----------------6-|
------------------4-----|----4---------4------4-|--------------4----|


                                                               
--------------------|-------------------|---------------------|
-------4----------4-|-----------4-----2-|-------------2-----4-|
----5--8----------4-|-----------4-----3-|----------3--------5-|
---------------2----|-----------6-------|-------4-------------|
------------------2-|--------2----------|-------------------2-|
------------4-------|--------0-----0--2-|----------------2----|


                                                              
-----------4-------|--------------------|--------------------|
-----------------4-|----4--4----------4-|------------4-----2-|
--------1--------5-|-------5------------|----------1-4-----3-|
-------------------|---------------6--4-|------------------4-|
-------------------|------------------7-|--------------------|
--------------4----|------------4-------|--------2------2----|


                                                            
------------------|-------------------|--------------------|
------------------|-----------------4-|----4--4----4-------|
----------2----3--|-----------------5-|-------5----------4-|
----------4----6--|--------6----------|------------------4-|
----------8----11-|-------------------|--------------------|
------------------|--------------4----|---------------4----|


                                                                  
---------------------|---------------------|---------------------|
-------------4-------|-------------------0-|-------------4-------|
----------1--------3-|----------------3--4-|----------1--4-----2-|
-------2-----4-----4-|-------4-------------|-------2-----------4-|
-------------------7-|-------------------6-|-------------------8-|
----------------0----|--------------2------|----------------0----|


                                                                         
-------------------|--------------|-----------------|-------------------|
-----------------4-|--------------|---------------4-|-----------4-----2-|
-----------1-----5-|--------------|---------------4-|-----------4-----3-|
-----------4-----6-|--------------|---------------6-|-----------6-------|
-----------9-------|--------------|-----------------|--------2----------|
--------2-----2--4-|--------------|---------------0-|--------0-----0--2-|


                                                               
---------------------|-----------4-------|--------------------|
-------------2-----4-|-----------------4-|----4--4----------4-|
----------3--------5-|--------1--------5-|-------5------------|
-------4-------------|-------------------|---------------6--4-|
-------------------2-|-------------------|------------------7-|
----------------2----|--------------4----|------------4-------|


                                                            
--------------------|------------------|-------------------|
------------4-----2-|------------------|-----------------4-|
----------1-4-----3-|----------2----3--|-----------------5-|
------------------4-|----------4----6--|--------6----------|
--------------------|----------8----11-|-------------------|
--------2------2----|------------------|--------------4----|


                                                                 
--------------------|---------------------|---------------------|
----4--4----4-------|-------------4-------|-------------------0-|
-------5----------4-|----------1--------3-|----------------3--4-|
------------------4-|-------2-----4-----4-|-------4-------------|
--------------------|-------------------7-|-------------------6-|
---------------4----|----------------0----|--------------2------|


                                                                           
---------------------|-------------------|--------------|-----------------|
-------------4-------|-----------------4-|--------------|---------------0-|
----------1--4-----2-|-----------1-----5-|--------------|---------------8-|
-------2-----------4-|-----------4-----6-|--------------|---------------6-|
-------------------8-|-----------9-------|--------------|---------------7-|
----------------0----|--------2-----2--4-|--------------|---------------0-|


                                                                     
-----------------|-----------------|--------------|-----------------|
-----------------|---------------4-|--------------|---------------4-|
---------------6-|-----------------|--------------|---------------0-|
-----------------|---------------1-|--------------|-----------------|
---------------4-|---------------6-|--------------|---------------6-|
---------------9-|-----------------|--------------|-----------------|


                                                                   
-----------------|-----------------|--------------|---------------||
---------------2-|---------------4-|--------------|---------------||
-----------------|---------------1-|--------------|---------------||
-----------------|---------------1-|--------------|---------------||
---------------0-|-----------------|--------------|---------------||
---------------2-|-----------------|--------------|---------------||







Guitar 5:
E|--------------|--------------|--------------|--------------|---------------|
B|--------------|--------------|--------------|--------------|---------------|
G|--------------|--------------|--------------|--------------|--0------------|
D|--------------|--------------|--------------|--------------|--6------------|
A|--------------|--------------|--------------|--------------|---------------|
E|--------------|--------------|--------------|--------------|---------------|


                                                                                
----------------|----------------|--------------|---------------|--------------|
--------------4-|--------------2-|--------------|--1------------|--------------|
----------------|--------------3-|--------------|---------------|--------------|
--------------4-|----------------|--------------|--1------------|--------------|
----------------|----------------|--------------|---------------|--------------|
----------------|----------------|--------------|---------------|--------------|


                                                                               
----------------|--------------|---------------|---------------|--------------|
--------------0-|--------------|--2------------|--1------------|--------------|
--------------3-|--------------|--3------------|---------------|--------------|
----------------|--------------|---------------|--1------------|--------------|
----------------|--------------|---------------|---------------|--------------|
----------------|--------------|---------------|---------------|--------------|


                                                                               
--------------|-----------------|--------------|---------------|--------------|
--------------|-----------------|--------------|--1------------|--------------|
--------------|--3--------------|--------------|---------------|--------------|
--------------|--6------------6-|--------------|---------------|--------------|
--------------|-----------------|--------------|---------------|--------------|
--------------|-----------------|--------------|---------------|--------------|


                                                                  
---------------|----------------|--------------|-----------------|
--0------------|----------------|--------------|--0--------------|
---------------|----------------|--------------|--1------------3-|
---------------|--------------4-|--------------|---------------6-|
---------------|--------------8-|--------------|-----------------|
---------------|----------------|--------------|-----------------|


                                                                               
----------------|--------------|--4------------|--4------------|--------------|
----------------|--------------|---------------|---------------|--------------|
--------------0-|--------------|---------------|--5------------|--------------|
--------------6-|--------------|---------------|--6------------|--------------|
----------------|--------------|---------------|---------------|--------------|
----------------|--------------|---------------|---------------|--------------|


                                                                  
-----------------|----------------|--------------|--4------------|
-----------------|----------------|--------------|---------------|
-----------------|--------------5-|--------------|---------------|
--2------------4-|----------------|--------------|---------------|
--6------------8-|--------------6-|--------------|---------------|
-----------------|----------------|--------------|---------------|


                                                                   
-----------------|--------------|---------------|--4--------------|
--0--------------|--------------|--1------------|---------------0-|
---------------3-|--------------|--1------------|-----------------|
--1------------4-|--------------|---------------|-----------------|
-----------------|--------------|---------------|-----------------|
-----------------|--------------|---------------|-----------------|


                                                                     
----------------|-----------------|------4----------|------4--------|
----------------|--2------------0-|-----------------|---------------|
--1-------------|--3------------1-|---------------3-|---------------|
----------------|-----------------|---------------6-|---------------|
----------------|-----------------|-----------------|---------------|
----------------|-----------------|-----------------|---------------|


                                                                            
--4------------|--------------|--------------|--------------|--------------|
---------------|--------------|--------------|--------------|--------------|
--0------------|--------------|--------------|--------------|--------------|
--2------------|--------------|--------------|--------------|--------------|
---------------|--------------|--------------|--------------|--------------|
---------------|--------------|--------------|--------------|--------------|


                                                                   
----------------|--------------|-------------------|--------------|
---1------------|--------------|--4------------2---|--------------|
----------------|--------------|--4--------------3-|--------------|
---1------------|--------------|-------------------|--------------|
----------------|--------------|-------------------|--------------|
----------------|--------------|-------------------|--------------|


                                                                 
-----------------|--------------|----------------|--------------|
---1-------------|--------------|--------------4-|--------------|
---1-------------|--------------|----------------|--------------|
-----------------|--------------|--------------4-|--------------|
-----------------|--------------|----------------|--------------|
-----------------|--------------|----------------|--------------|


                                                                     
-----------------|-----------------|--------------|-----------------|
---2-------------|---1-------------|--------------|---4-------------|
---3-------------|-----------------|--------------|---4-------------|
-----------------|---1-------------|--------------|-----------------|
-----------------|-----------------|--------------|-----------------|
-----------------|-----------------|--------------|-----------------|


                                                                        
------------------|-----------------|----------------|-----------------|
---2------------1-|-----------------|--------------4-|-----------------|
---3--------------|---1-------------|----------------|---4-------------|
------------------|-----------------|----------------|-----------------|
------------------|-----------------|----------------|-----------------|
------------------|-----------------|----------------|-----------------|


                                                                       
-----------------|------------------|----------------|----------------|
---2-------------|---1------------0-|----------------|----------------|
---3-------------|------------------|--------------1-|----------------|
-----------------|---1--------------|--------------4-|--------------4-|
-----------------|------------------|----------------|----------------|
-----------------|------------------|----------------|----------------|


                                                                     
------------------|----------------|--------------|-----------------|
----------------4-|--------------2-|--------------|---1-------------|
---3--------------|----------------|--------------|---1-------------|
----------------4-|--------------3-|--------------|-----------------|
------------------|----------------|--------------|-----------------|
------------------|----------------|--------------|-----------------|


                                                                   
--------------|---4-------------|----------------|----------------|
--------------|-----------------|----------------|----------------|
--------------|---5-------------|----------------|----------------|
--------------|---6-------------|--------------2-|--------------4-|
--------------|-----------------|--------------6-|--------------8-|
--------------|-----------------|----------------|----------------|


                                                                    
----------------|--------------4-|----------------|----------------|
----------------|----------------|--------------0-|----------------|
--------------5-|----------------|----------------|--------------3-|
----------------|----------------|--------------1-|--------------4-|
--------------6-|----------------|----------------|----------------|
----------------|----------------|----------------|----------------|


                                                                     
----------------|--------------4-|----------------|-----------------|
--------------1-|----------------|--------------0-|---------------2-|
--------------1-|----------------|----------------|---------------3-|
----------------|----------------|--------------1-|-----------------|
----------------|----------------|----------------|-----------------|
----------------|----------------|----------------|-----------------|


                                                                     
-----------------|------4----------|------4--------4-|--------------|
---------------0-|-----------------|-----------------|--------------|
---------------1-|---------------3-|---------------0-|--------------|
-----------------|---------------6-|---------------2-|--------------|
-----------------|-----------------|-----------------|--------------|
-----------------|-----------------|-----------------|--------------|


                                                                      
---------------|------------------|----------------|-----------------|
---------------|---0--------------|--------------4-|-----------------|
---------------|---1------------1-|--------------5-|---6-------------|
---------------|------------------|----------------|-----------------|
---------------|----------------4-|----------------|-----------------|
---------------|---0------------2-|----------------|-----------------|


                                                                  
----------------|----------------|----------------|--------------|
--------------0-|----------------|--------------4-|--------------|
----------------|--------------1-|----------------|--------------|
----------------|----------------|----------------|--------------|
--------------6-|--------------4-|--------------6-|--------------|
----------------|--------------2-|----------------|--------------|


                                                                    
----------------|--------------|------------------|----------------|
--------------0-|--------------|----------------0-|----------------|
----------------|--------------|---1--------------|--------------3-|
----------------|--------------|------------------|--------------2-|
--------------2-|--------------|---4------------2-|----------------|
--------------0-|--------------|---2--------------|--------------2-|


                                                                      
---------------|-----------------|------------------|----------------|
---------------|-----------------|---2--------------|--------------0-|
---------------|---3-------------|----------------3-|----------------|
---------------|---4-------------|----------------6-|----------------|
---------------|-----------------|------------------|--------------4-|
---------------|---2-------------|----------------0-|----------------|


                                                                     
----------------|----------------|-----------------|----------------|
----------------|--------------2-|---------------2-|----------------|
--------------3-|----------------|-----------------|--------------4-|
--------------4-|----------------|-----------------|----------------|
----------------|----------------|---------------4-|--------------4-|
----------------|----------------|---------------4-|----------------|


                                                                         
----------------|----------------|-------------------|------------------|
----------------|--------------2-|---------------2---|--------------0---|
--------------3-|----------------|-------------------|------------------|
--------------4-|----------------|---------------3---|----------------4-|
----------------|----------------|-----------------4-|------------------|
----------------|----------------|-------------------|----------------2-|


                                                                       
-----------------|----------------|-----------------|-----------------|
-----------------|--------------2-|---------------2-|---------------0-|
---------------3-|----------------|-----------------|-----------------|
-----------------|----------------|---------------3-|-----------------|
---------------4-|----------------|-----------------|---------------4-|
-----------------|----------------|---------------0-|-----------------|


                                                                    
--------------|----------------|-----------------|-----------------|
--------------|---1------------|---------------4-|---------------2-|
--------------|----------------|---------------4-|-----------------|
--------------|---1------------|-----------------|-----------------|
--------------|----------------|-----------------|-----------------|
--------------|----------------|-----------------|-----------------|


                                                                               
---------------|---------------|--------------|---------------|---------------|
---------------|--1------------|--------------|--4------------|--2------------|
--3------------|--1------------|--------------|--4------------|--3------------|
---------------|---------------|--------------|---------------|---------------|
---------------|---------------|--------------|---------------|---------------|
---------------|---------------|--------------|---------------|---------------|


                                                                               
---------------|--------------|---------------|---------------|---------------|
--1------------|--------------|--4------------|--2------------|--1------------|
---------------|--------------|--4------------|--3------------|---------------|
--1------------|--------------|---------------|---------------|--1------------|
---------------|--------------|---------------|---------------|---------------|
---------------|--------------|---------------|---------------|---------------|


                                                                 
--------------|---------------|---------------|-----------------|
--------------|--4------------|--2------------|--1------------0-|
--------------|---------------|--3------------|-----------------|
--------------|--4------------|---------------|--1--------------|
--------------|---------------|---------------|-----------------|
--------------|---------------|---------------|-----------------|


                                                                  
---------------|---------------|-----------------|---------------|
---------------|---------------|---------------4-|---------------|
---------------|--1------------|-----------------|--4------------|
---------------|--4------------|--4--------------|---------------|
---------------|---------------|--8--------------|---------------|
---------------|---------------|-----------------|---------------|


                                                                              
---------------|---------------|--------------|--4------------|--------------|
--2------------|--1------------|--------------|---------------|--------------|
---------------|--1------------|--------------|--5------------|--------------|
--3------------|---------------|--------------|--6------------|--------------|
---------------|---------------|--------------|---------------|--------------|
---------------|---------------|--------------|---------------|--------------|


                                                                  
-----------------|----------------|--------------|--4------------|
-----------------|----------------|--------------|---------------|
-----------------|--------------5-|--------------|---------------|
--2------------4-|----------------|--------------|---------------|
--6------------8-|--------------6-|--------------|---------------|
-----------------|----------------|--------------|---------------|


                                                                   
-----------------|--------------|---------------|--4--------------|
--0--------------|--------------|--1------------|---------------0-|
---------------3-|--------------|--1------------|-----------------|
--1------------4-|--------------|---------------|-----------------|
-----------------|--------------|---------------|-----------------|
-----------------|--------------|---------------|-----------------|


                                                                     
----------------|-----------------|------4----------|------4--------|
----------------|--2------------0-|-----------------|---------------|
--1-------------|--3------------1-|---------------3-|---------------|
----------------|-----------------|---------------6-|---------------|
----------------|-----------------|-----------------|---------------|
----------------|-----------------|-----------------|---------------|


                                                                  
--4------------|--------------|--4--------------|----------------|
---------------|--------------|-----------------|--------------1-|
--0------------|--------------|--1--------------|----------------|
--2------------|--------------|--2------------4-|--------------1-|
---------------|--------------|---------------8-|----------------|
---------------|--------------|-----------------|----------------|


                                                                                
--------------|--4------------|-----------------|--------------|---------------|
--------------|---------------|--0--------------|--------------|--1------------|
--------------|---------------|---------------3-|--------------|--1------------|
--------------|---------------|--1------------4-|--------------|---------------|
--------------|---------------|-----------------|--------------|---------------|
--------------|---------------|-----------------|--------------|---------------|


                                                                       
--4--------------|----------------|-----------------|------4----------|
---------------0-|----------------|--2------------0-|-----------------|
-----------------|--1-------------|--3------------1-|---------------3-|
-----------------|----------------|-----------------|---------------6-|
-----------------|----------------|-----------------|-----------------|
-----------------|----------------|-----------------|-----------------|


                                                                 
------4--------|--4------------|--------------|-----------------|
---------------|---------------|--------------|--0--------------|
---------------|--0------------|--------------|--1------------1-|
---------------|--2------------|--------------|-----------------|
---------------|---------------|--------------|-----------------|
---------------|---------------|--------------|--0------------2-|


                                                               
---------------|---------------|--------------|---------------|
---------------|--4------------|--------------|--0------------|
--3------------|--5------------|--------------|---------------|
---------------|---------------|--------------|--1------------|
---------------|--2------------|--------------|---------------|
---------------|---------------|--------------|---------------|


                                                                               
-----------------|---------------|--------------|--------------|--------------|
---------------4-|--1------------|--------------|--------------|--------------|
--1--------------|---------------|--------------|--------------|--------------|
-----------------|---------------|--------------|--------------|--------------|
--4--------------|---------------|--------------|--------------|--------------|
--2--------------|---------------|--------------|--------------|--------------|


                                                                            
--------------|--------------|---------------|--------------|--------------||
--------------|--------------|--4------------|--------------|--------------||
--------------|--------------|--5------------|--------------|--------------||
--------------|--------------|--6------------|--------------|--------------||
--------------|--------------|---------------|--------------|--------------||
--------------|--------------|--4------------|--------------|--------------||









Guitar 6:
E|--------------|--------------|--------16-----------|--------16-----------|
B|--------------|--------------|--------------16-----|--------------16-----|
G|--------------|--------------|---------------------|--13-----------------|
D|--------------|--------------|--18-----------------|---------------------|
A|--------------|--------------|---------------------|---------------------|
E|--------------|--------------|---------------------|---------------------|


                                                                      
--------16-----------|--------16-----------|--16--------16--------16-|
--------------16-----|--------------16-----|--------16------16-------|
--13-----------------|--13-----------------|-------------------------|
---------------------|---------------------|-------------------------|
---------------------|---------------------|-------------------------|
---------------------|---------------------|-------------------------|


                                                          
-----------16---------|------------------|---------------|
-------16------16-----|------------------|---------------|
----------------------|--13--------------|---------------|
----------------------|------------------|---------------|
----------------------|---------------14-|---------------|
----------------------|------------------|---------------|


                                                                   
--16--------16--------|--16----------16----|--16--------16--------|
--------16------16----|--------16----------|--------16------16----|
----------------------|--------------------|----------------------|
----------------------|--------------------|----------------------|
----------------------|--------------------|----------------------|
----------------------|--------------------|----------------------|


                                                                          
--16----------16----|------------------------|----------------11--9--11--|
--------16----------|------------11--13--14--|--13--14--13-14------------|
--------------------|--13----13--------------|---------------------------|
--------------------|------------------------|---------------------------|
--------------------|------------------------|---------------------------|
--------------------|------------------------|---------------------------|


                                                                             
--16------------|--------------16-|------14-----------|------14----------16-|
--16------------|-----------------|----------------16-|---------14-------16-|
----------------|--------------15-|------13--------20-|---------------------|
----------------|-----------------|-------------------|---------------------|
----------------|-----------------|-------------------|---------------------|
----------------|-----------------|-------------------|---------------------|


                                                                 
--------------|--------------|--16------------14-|--------------|
--------------|--------------|--16---------------|--------------|
--------------|--------------|----------------13-|--------------|
--------------|--------------|-------------------|--------------|
--------------|--------------|-------------------|--------------|
--------------|--------------|-------------------|--------------|


                                                                       
--11------------|--------------|--4---6-----7----6-|------4----2----4-|
----------------|--------------|-------------------|------------------|
----------------|--------------|-------------------|------------------|
--13------------|--------------|-------------------|------------------|
----------------|--------------|-------------------|------------------|
----------------|--------------|-------------------|------------------|


                                                                     
------6----7-----6-|-----------6-----|--4------------|--------------|
-------------------|------7----------|--4------------|--------------|
-------------------|-----------------|---------------|--------------|
-------------------|-----------------|---------------|--------------|
-------------------|-----------------|---------------|--------------|
-------------------|-----------------|---------------|--------------|


                                                                             
--4------------|--------------|--------------|--------------|--4------------|
---------------|--------------|--------------|--------------|---------------|
---------------|--------------|--------------|--------------|---------------|
---------------|--------------|--------------|--------------|---------------|
---------------|--------------|--------------|--------------|---------------|
---------------|--------------|--------------|--------------|---------------|


                                                                               
--------------|--------------|---------------|--4------------|--------------4-|
--------------|--------------|---------------|---------------|----------------|
--------------|--------------|---------------|---------------|----------------|
--------------|--------------|---------------|---------------|----------------|
--------------|--------------|---------------|---------------|----------------|
--------------|--------------|---------------|---------------|----------------|


                                                               
--------------|--14----------14----18-|------------16------16-|
--------------|--------14-------------|-----------------------|
--------------|-----------------------|------18--------18-----|
--------------|-----------------------|-----------------------|
--------------|-----------------------|-----------------------|
--------------|-----------------------|-----------------------|


                                                                  
------------16----14-|------------14----14-|------------14----18-|
---------------------|------14-------------|------14-------------|
------18-------------|---------------------|---------------------|
---------------------|---------------------|---------------------|
---------------------|---------------------|---------------------|
---------------------|---------------------|---------------------|


                                                                      
-------------16------|--16----------16----14-|------------14------14-|
---------------------|-----------------------|------14--------14-----|
------18---------18--|--------18-------------|-----------------------|
---------------------|-----------------------|-----------------------|
---------------------|-----------------------|-----------------------|
---------------------|-----------------------|-----------------------|


                                                                     
------------14-----18-|------------16------16-|------------16----14-|
------14--------------|-----------------------|---------------------|
----------------------|------18--------18-----|------18-------------|
----------------------|-----------------------|---------------------|
----------------------|-----------------------|---------------------|
----------------------|-----------------------|---------------------|


                                                                                
------------14-----|--------------|--------------|--------------|--------------|
------14-----------|--------------|--------------|--------------|--------------|
-------------------|--------------|--------------|--------------|--------------|
-------------------|--------------|--------------|--------------|--------------|
-------------------|--------------|--------------|--------------|--------------|
-------------------|--------------|--------------|--------------|--------------|


                                                                                
--------------|--4----16-----------|--------16-----------|--------16-----------|
--------------|-------------16-----|--------------16-----|--------------16-----|
--------------|--------------------|--13-----------------|--13-----------------|
--------------|--------------------|---------------------|---------------------|
--------------|--------------------|---------------------|---------------------|
--------------|--------------------|---------------------|---------------------|


                                                                       
--------16-----------|--16--------16--------16-|-----------16---------|
--------------16-----|--------16------16-------|-------16------16-----|
--13-----------------|-------------------------|----------------------|
---------------------|-------------------------|----------------------|
---------------------|-------------------------|----------------------|
---------------------|-------------------------|----------------------|


                                                                               
------------------|---------------|--16--------16--------|--16----------16----|
------------------|---------------|--------16------16----|--------16----------|
--13--------------|---------------|----------------------|--------------------|
------------------|---------------|----------------------|--------------------|
---------------14-|---------------|----------------------|--------------------|
------------------|---------------|----------------------|--------------------|


                                                                     
--16--------16--------|--16----------16----|------------------------|
--------16------16----|--------16----------|------------11--13--14--|
----------------------|--------------------|--13----13--------------|
----------------------|--------------------|------------------------|
----------------------|--------------------|------------------------|
----------------------|--------------------|------------------------|


                                                               
----------------11--9--11--|--16------------|--------------16-|
--13--14--13-14------------|--16------------|-----------------|
---------------------------|----------------|--------------15-|
---------------------------|----------------|-----------------|
---------------------------|----------------|-----------------|
---------------------------|----------------|-----------------|


                                                                        
------14-----------|------14----------16-|--------------|--------------|
----------------16-|---------14-------16-|--------------|--------------|
------13--------20-|---------------------|--------------|--------------|
-------------------|---------------------|--------------|--------------|
-------------------|---------------------|--------------|--------------|
-------------------|---------------------|--------------|--------------|


                                                                   
--16------------14-|--------------|--11------------|--------------|
--16---------------|--------------|----------------|--------------|
----------------13-|--------------|----------------|--------------|
-------------------|--------------|--13------------|--------------|
-------------------|--------------|----------------|--------------|
-------------------|--------------|----------------|--------------|


                                                                             
--4---6-----7----6-|------4----2----4-|------6----7-----6-|-----------6-----|
-------------------|------------------|-------------------|------7----------|
-------------------|------------------|-------------------|-----------------|
-------------------|------------------|-------------------|-----------------|
-------------------|------------------|-------------------|-----------------|
-------------------|------------------|-------------------|-----------------|


                                                                           
--4------------|--------------|--16----14-----------|------14----------16-|
--4------------|--------------|--16--------------16-|---------14-------16-|
---------------|--------------|--------13--------20-|---------------------|
---------------|--------------|---------------------|---------------------|
---------------|--------------|---------------------|---------------------|
---------------|--------------|---------------------|---------------------|


                                                                 
--------------|--------------|--16------------14-|--------------|
--------------|--------------|--16---------------|--------------|
--------------|--------------|----------------13-|--------------|
--------------|--------------|-------------------|--------------|
--------------|--------------|-------------------|--------------|
--------------|--------------|-------------------|--------------|


                                                                       
--11------------|--------------|--4---6-----7----6-|------4----2----4-|
----------------|--------------|-------------------|------------------|
----------------|--------------|-------------------|------------------|
--13------------|--------------|-------------------|------------------|
----------------|--------------|-------------------|------------------|
----------------|--------------|-------------------|------------------|


                                                                     
------6----7-----6-|-----------6-----|--8------------|--------------||
-------------------|------7----------|--9------------|--------------||
-------------------|-----------------|---------------|--------------||
-------------------|-----------------|---------------|--------------||
-------------------|-----------------|---------------|--------------||
-------------------|-----------------|---------------|--------------||
Comments