Seal - Kiss From A Rose Chords & Tabs

 

Kiss From A Rose Chords & Tabs

Seal Chords & Tabs

Version: 2 Type: Tab 0 ratings
1 star 2 stars 3 stars 4 stars 5 stars
comments

Kiss From A Rose Tab

Diazr2k  -  HDz3.COM

This is my first one, but its pretty good, I got it
from a friend. Its alot easier than the other ones,
pretty much why I like it. Its not as good quality,
but hey, the ladies recognize it.

(Intro) Reapeat 4x
1:---------------------------|
2:---------------------------|
3:---1-3-4---6-4-3-1-1---1-1-|
4:------------------4-----4--|
5:---------------------------|
6:---------------------------|
[ Tab from: http://www.guitartabs.cc/tabs/s/seal/kiss_from_a_rose_tab_ver_2.html ]
(There, used...)
1:-----------------------------------------|
2:--2-1----1-2-1-2-1-2-4--4-4-2--1-2-4-1---|
3:----------------------1------------------|
4:-----------------------------------------|
5:-----------------------------------------|
6:-----------------------------------------|
(You Became...)
1:--4-3------------------------------------|
2:-----4-1--2-4---4-4-2--1-2-4-1-----------|
3:-------------1---------------------------|
4:-----------------------------------------|
5:-----------------------------------------|
6:-----------------------------------------|
(Love Ramained...)
1:--9-8--4---1-2---2-1---------------------|
2:--------4------4-----4--2-4-1------------|
3:-----------------------------------------|
4:-----------------------------------------|
5:-----------------------------------------|
6:-----------------------------------------|


I still gotta do the rest, just wait for it.
Enjoy the easier version.
--Diazr2k
--HDz3.COM
Comments