Seafood - This Is Not An Exit Chords & Tabs

 

This Is Not An Exit Chords & Tabs

Seafood Chords & Tabs

Version: 1 Type: Tab 0 ratings
1 star 2 stars 3 stars 4 stars 5 stars
comments

This Is Not An Exit Tab

-------------------------------------------------------------------------------
		This is not an exit- Seafood
-------------------------------------------------------------------------------

Tabbed by:Jack d 
Email:Park_punk@homtial.com
[ Tab from: http://www.guitartabs.cc/tabs/s/seafood/this_is_not_an_exit_tab.html ]
Tuning:Standard: Ok i only know really one guitar part for this song so here goes.
into Guitar 1 
e|---------------------------------------------------------------------------|
B|---------------------------------------------------------------------------|
G|---------------------------------------------------------------------------|
D|---5-4-5-4-5-4---4---------------------------------------------------------|
A|---0-0-0-0-0-0---5---------------------------------------------------------|
E|---------------------------------------------------------------------------|
Guitar 2 intro
e|---------------------------------------------------------------------------|
B|---------------------------------------------------------------------------|
G|--7777777-66-7777777-99-7777777--66-77777777---12-12-11-11-9-9-7-----------|
D|------------------------------------------------0--0--0--0-0-0-0-----------|
A|--5555555-44-5555555-77-55555555-44-55555555-------------------------------|
E|---------------------------------------------------------------------------|
Guitar 2 intro 2 
e|---------------------------------------------------------------------------|
B|---------------------------------------------------------------------------|
G|---7777777---9999-1111-99-77777777-1414-1212-1111-7------------------------|
D|---------------------------------------------------------------------------|
A|---55555555--7777-9-9--77-55555555-1212-1010-9-9--5------------------------|
E|---------------------------------------------------------------------------|
Verse picky bit 
e|---------------------------------------------------------------------------|
B|----8-7---7-8-7--------15-14----14-15-14-----------------------------------|
G|--------7-------7------------14----------14--------------------------------|
D|---------------------------------------------------------------------------|
A|---------------------------------------------------------------------------|
E|---------------------------------------------------------------------------|
Pre chorus 
e|---------------------------------------------------------------------------|
B|---------------------------------------------------------------------------|
G|--1111-1212-111111-1212-14141414-1212-11111111-----------------------------|
D|---------------------------------------------------------------------------|
A|--9-9--1010-9-9-9--1010-12121212-1010-9-9-9-9------------------------------|
E|---------------------------------------------------------------------------|
Chorus
e|---------------------------------------------------------------------------|
B|---------------------------------------------------------------------------|
G--44-66-44-66-44-66-44-66---------------------------------------------------|
D|---------------------------------------------------------------------------|
A|-22-44-22-44-22-44-22-44---------------------------------------------------|
E|---------------------------------------------------------------------------|
Bridge 
e|---------------------------------------------------------------------------|
B|-----------------15-14------------------15-14------------------------------|
G|--14-16-14-16-14-------14-14-16-14-16-14------14---------------------------|
D|---------------------------------------------------------------------------|
A|---------------------------------------------------------------------------|
E|---------------------------------------------------------------------------|
Bridge 2 
e|---------------------------------------------------------------------------|
B|---------------------------------------------------------------------------|
G|-------11-11-11-11-12-11-11-9-11-11-11-11-12-11-9--------------------------|
D|---------------------------------------------------------------------------|
A|---------------------------------------------------------------------------|
E|---------------------------------------------------------------------------|
Structure
Guitar 1 intro
Guitar 2 intro 1
Guitar 2 intro 2 
Verse Picky riff x2
Pre chorus 
Chorus
Guitar 2 intro 2
Verse guitar 2 intro 1 
pre chorus 
chorus 
Bridge 1
Brdge 2 play twice
bridge 1 
bridge 2 play twice
pre chorus 
chorus
Comments