Seafood - Gun Trip Chords & Tabs

 

Gun Trip Chords & Tabs

Seafood Chords & Tabs

Version: 1 Type: Tab 0 ratings
1 star 2 stars 3 stars 4 stars 5 stars
comments

Gun Trip Tab

Seafood - Gun Trip
Tabbed by LuckyJim (youdoittoyourself@hotmail.co.uk)


Intro:

E [-------------------------------]
B [-------------------------------]
G [-------------------------------]
D [-------------------4-----------] x4
A [-4-6-4-6-4---7---7---6---6-7-6-]
E [-----------4-------------------]

E [-------------------------------------------]
B [-----------------------------------------7-]
G [---------6-4-------------------------6-4---]
D [-6---5-------4---------------6---5---------] x2
A [-----------------7---6---7-----------------]
E [-------------------------------------------]


Verse:

E [---------------------------------]
B [---------------------------------]
G [-6---6---6-6-6-9---9-9-8---8-8-8-]
D [-6---6---6-6-6-9---9-9-8---8-8-8-] x4
A [-4---4---4-4-4-7---7-7-6---6-6-6-]
E [---------------------------------]

E [---------------------------------------------]
B [---------------------------------------------]
G [---------------------------------------------]
D [-9-----------------\-------------------------]
A [-9-let notes ring--\ scrap pick down strings-]
E [-7-----------------\-------------------------]


Chorus:
[ Tab from: http://www.guitartabs.cc/tabs/s/seafood/gun_trip_tab.html ]
E [-----------------------------]
B [--------------------16b17r16-]
G [--11-------13----------------]
D [-----------------------------]
A [--9--------11----------------]
E [-----------------------------]

E [----------------]
B [----------------]
G [--11-------6b---]
D [----------------]
A [--9--------4b---]
E [----------------]



Solo:

E [-----------------------------------------------------]
B [-----------------------------------------------------]
G [-9---8~--------------9---8~--------------------------]
D [---------9/11----------------9/11--------------------]
A [----------------11~-----------------11~---9---11---9-]
E [-----------------------------------------------------]


behind the solo another guitar plays folowing chords

E [--------------------]
B [--------------------]
G [---6-----9-----11---]
D [---6-----9-----11---]
A [---4-----7-----9----]
E [--------------------]


Outro:

E [------]
B [------]
G [--/13-]
D [------] repeat
A [--/11-]
E [------]


E [-------------------]
B [-------------8b9r8-]
G [-6---6---6-6-------]
D [-6---6---6-6-------] repeat to end
A [-4---4---4-4-------]
E [-------------------]
Comments