Sea Wolf - Saint Catherine St Chords & Tabs

 

Saint Catherine St Chords & Tabs

Sea Wolf Chords & Tabs

Version: 1 Type: Bass Tab 0 ratings
1 star 2 stars 3 stars 4 stars 5 stars
comments

Saint Catherine St Bass Tab

   
-----------------------------------------------------------------------------
                             SAINT CATHERINE STREET - Sea Wolf
-----------------------------------------------------------------------------
Tabbed by: Foxtopus
E-mail: feralearth@gmail.com

Tuning: Standard

  Intro

G|-------------------------------------------------------|
D|-----------------------------------------2-------------|
A|---------2-3-5---7-5-----2-3---------------------2-3-5-|  X1
E|-5---5---------------5-------3---2---------------------|

  Verse

G|-----------------|           |---------|
D|-----------------|           |---------|
A|-7-5-----2-3-----|  X3  then |-7-5-----|  and right into
E|-----5-------3---|           |---------|

  Chorus pt1

G|----------------------------------------------|
D|----------------------------------------------|
A|-7-7777-777-5-5555-555-3-3333-333-2-2222-222--|  X2
E|----------------------------------------------|

  Chorus pt2

G|-----------------|
D|-----------------|
A|---2-3-----------|  X2
E|-5-------3---2---|

  back to a little of the
  Intro

G|-----------------|
D|-2---------------|
A|---------2-3-5---|
E|-----------------|

  Verse
[ Tab from: http://www.guitartabs.cc/tabs/s/sea_wolf/saint_catherine_st_btab.html ]
G|-----------------|           |---------|
D|-----------------|           |---------|
A|-7-5-----2-3-----|  X3  then |-7-5-----|  and right into
E|-----5-------3---|           |---------|

  Chorus pt1

G|----------------------------------------------|
D|----------------------------------------------|
A|-7-7777-777-5-5555-555-3-3333-333-2-2222-222--|  X2
E|----------------------------------------------|

  Chorus pt2

G|-----------------|
D|-----------------|
A|---2-3-----------|  X2
E|-5-------3---2---|

  Bridge
  
G|---------------------|
D|---------------------|
A|-55557777999910101010|  X4
E|---------------------|

  Chorus pt1

G|----------------------------------------------|
D|----------------------------------------------|
A|-7-7777-777-5-5555-555-3-3333-333-2-2222-222--|  X4
E|----------------------------------------------|

  Chorus pt2

G|-----------------|
D|-----------------|
A|---3-2-----------|  X2
E|-5-------3---2---|

  Bridge
  
G|---------------------|
D|---------------------|
A|-55557777999910101010|  X4
E|---------------------|

  End on 

G|------|
D|------|
A|------|
E|-3----|

| /  slide up
| \  slide down
| h  hammer-on
| p  pull-off
| ~  vibrato
| +  harmonic
| x  Mute note
======================================================================
Comments