Sea And Cake - The Fawn Chords & Tabs

 

The Fawn Chords & Tabs

Sea And Cake Chords & Tabs

Version: 1 Type: Bass Tab 0 ratings
1 star 2 stars 3 stars 4 stars 5 stars
comments

The Fawn Bass Tab

|-10----------------10--9--------|
|----10--12-----10--------10--12-|(fading in... actually the same as the part
|------------10------------------|below, but starting at about 2 notes in)
|--------------------------------|



|-12----10-----------------10--9--------|
|----12----10--12-------10-------10--12-|repeat this part about 17 times
|--------------------10-----------------|
|---------------------------------------|


[ Tab from: http://www.guitartabs.cc/tabs/s/sea_and_cake/the_fawn_btab.html ]
|-12----10-------------------------------------------------------------|
|----12----10--12------------------------------------------------------|
|--------------------5-5-5-5-5-5-5-5-5-5-5-5-5-5-5-5-5-5-5-5-5-5-5-5-5-|
|----------------------------------------------------------------------|



|-------10--9--------|-12----10-----------------10--9--------|
|----10-------10--12-|----12----10--12-------10-------10--12-|
|-10-----------------|--------------------10-----------------|
|--------------------|---------------------------------------|
Comments