Sea And Cake - Sending Chords & Tabs

 

Sending Chords & Tabs

Sea And Cake Chords & Tabs

Version: 1 Type: Tab 0 ratings
1 star 2 stars 3 stars 4 stars 5 stars
comments

Sending Tab

Tabbed By Brandon E. Perkins
Standard tuning 

repeat this a few times
e------------------------------0-0-0-----|
a--------------0-0-------0--1--1-1-1-1---|
d--------------0-0-------0--2--2-2-2-2---|
g---2--0--h2-2-2-2-0-h2--2--3--3-3-3-3---|
b---3--3---3-3-3-3-3--3--3--3--3-3-3-3---|
E---3--3---3-3-3-3-3--3--3--1--1-1-1-1---|

this part's a little tricky for me to play, 
but im not guitar god like Derek Kerl
[ Tab from: http://www.guitartabs.cc/tabs/s/sea_and_cake/sending_tab.html ]
          note: slide to about 3rd fret but don't strum once you get there;
            |    that would be silly
            |
            V 
e---------5-s-3-----0-0-0-0-------------3--|
a----5----5-s-3--1--1-1-1-1-------------6--|
d----4----5-s-3--2--2-2-2-2--4--------4----|
g----5--3--------3--3-3-3-3--3-----3-------|
b--3----3--------3--3-3-3-3--5--5----------|
E--3-------------1--1-1-1-1--3-------------|
                           something like this  



The E stands for Effing
                                   
                                                -Love and peace-
Comments