Sea And Cake - Bird And Flag Chords & Tabs

 

Bird And Flag Chords & Tabs

Sea And Cake Chords & Tabs

Version: 1 Type: Bass Tab 0 ratings
1 star 2 stars 3 stars 4 stars 5 stars
comments

Bird And Flag Bass Tab

   
|-9----------|             
|---7--10--9-|    
|------------|                   
|------------|
^  part A - ^
repeat 3 times

                  
|-----------|-----------7--9------------|                  
|-9---------|-7---7-10-------9----------|           
|---10---10-|---7--------------10----10-|    
|------10---|---------------------10----|                  
             ^ part B - repeat 7 times ^



|----------7-|-9----------|
|-7---7-10---|---7--10--9-|
|---7--------|------------|               
|------------|------------|               
              ^  part A   ^
              repeat 2 times


[ Tab from: http://www.guitartabs.cc/tabs/s/sea_and_cake/bird_and_flag_btab.html ]
|-----------|-----------7--9------------|                  
|-9---------|-7---7-10-------9----------|           
|---10---10-|---7--------------10----10-|    
|------10---|---------------------10----|                  
             ^ part B - repeat 7 times ^
         


|-----------7--9----------------9----------------------|
|-7---7-10-------------------7-----------7--10-10-9----|
|---7--------------7--5--10--------7--5-------------10-|
|------------------------------------------------------|



|-----------|-----------7--9------------|                  
|-9---------|-7---7-10-------9----------|           
|---10---10-|---7--------------10----10-|    
|------10---|---------------------10----|                  
             ^ part B - repeat 9 times ^



|----------7-|-9----------|---9--------|
|-7---7-10---|---7--10--9-|------7--5--|
|---7--------|------------|------------|              
|------------|------------|------------|               
              ^  part A   ^
              repeat 5 times



Comments