Scripture - Apache Chords & Tabs

 

Apache Chords & Tabs

Scripture Chords & Tabs

Version: 1 Type: Tab 1 rating
1 star 2 stars 3 stars 4 stars 5 stars
comments

Apache Tab

Artist: Scripture
Title: Apache

This song is a smooth piece from Café Del Mar vol. 8. You will have to listen to the song to understand the rhythm and beats because I can’t write that, but here is the chord progression-



e---0----1--0------
B---1----1--1------
G---2----2--2------
D------------------
A---0—---0--0------
E------------------
[ Tab from: http://www.guitartabs.cc/tabs/s/scripture/apache_tab.html ]
e---0----1--0------ 
B---0----1--0------ 
G---1----1--1------ 
D------------------ 
A------------------ 
E---4----4--4------

e---3----3--3------ 
B---3----4--3------ 
G---3----3--3------ 
D------------------ 
A------------------ 
E---3----3--3------

e---0----0--0------ 
B---3----1--3------ 
G---2----2--2------ 
D------------------ 
A------------------ 
E---2----2--2------

e---0-------------- 
B---0-------5------
G---1-------4------
D-----------6------ 
A------------------ 
E---0--------------



tabbed by Harold and Gulliver
guido_thepimp@hotmail.com
Comments