Screw 32 - Misunderstood Chords & Tabs

 

Misunderstood Chords & Tabs

Screw 32 Chords & Tabs

Version: 1 Type: Bass Tab 0 ratings
1 star 2 stars 3 stars 4 stars 5 stars
comments

Misunderstood Bass Tab

Song:MISUNDERSTOOD
Band:SCREW 32
Album:UNDER THE INFLUENCE OF BAD PEOPLE
tabbed by:"THICK" MIKE RODRIGUEZ



    INTRO (PLAY TWICE)
G:---------------------------------------------------------------
D:--------7-----5--------------------------------------------------
A:-9P7-H7---9-5---6-3-------------------------------------------------
E:---------------------------------------------------------------
[ Tab from: http://www.guitartabs.cc/tabs/s/screw_32/misunderstood_btab.html ]
   VERSE  (*=PLAY 8 TIMES)
G:---------------------------------------------------------------
D:---------------------------------------------------------------
A:---------------1-6-----------------------------------------------
E:-3*-3*-3*-3*-1-----6---------------------------------------------

  SLOW PART
G:---------------------------------------------------------------
D:---------------------------------------------------------------
A:-2H4---------1H3----------------------------------------------------
E:-----4H5-1H3--------------------------------------------------------

    END
G:---------------------------------------------------------------
D:---------------------------------------------------------------
A:-13/15--------------------------------------------------------------
E:---------------------------------------------------------------


THATS IT

Comments