Screeching Weasel - You Are My Sunshine Chords & Tabs

 

You Are My Sunshine Chords & Tabs

Screeching Weasel Chords & Tabs

Version: 1 Type: Tab 0 ratings
1 star 2 stars 3 stars 4 stars 5 stars
comments

You Are My Sunshine Tab

intro
e----------------------------------------------------------------------------|
b----------------------------------------------------------------------------|
g-4-9--4-9-4---8-6-4---------------------------------------------------------|
d-4-9--4-9-4---8-6-4---------------------------------------------------------|
a-2-7--2-7-2---6-4-2---------------------------------------------------------|
E----------------------------------------------------------------------------|
palm mute all ecxept first note, figure the strumming out yourself
[ Tab from: http://www.guitartabs.cc/tabs/s/screeching_weasel/you_are_my_sunshine_tab.html ]
verse/chorus
e---------------------------------------------------------------------------|
b---------------------------------------------------------------------------|
g-4-9--4-9-4---8-6-4--------------------------------------------------------|
d-4-9--4-9-4---8-6-4--------------------------------------------------------|
a-2-7--2-7-2---6-4-2--------------------------------------------------------|
E---------------------------------------------------------------------------|
figure out the strumming yourself


Solo:
Riff 1
E|----------|----------|----------|----------|
B|-4-4-4-2--|-4~4-4-2--|-4-4-4-2--|-4~4-4-2--|
G|--------4-|--------4-|--------4-|--------4-|
D|----------|----------|----------|----------|
A|----------|----------|----------|----------|
E|----------|----------|----------|----------|

Riff 2
E|-------4------|-------4---------------|
B|-5---5--7-5-4~|-5---5---7-7h9-7-7-9---|
G|---4----------|---4-----------------4-|
D|--------------|-----------------------|
A|--------------|-----------------------|
E|--------------|-----------------------|

End Solo Riff.
E|------------------------|
B|--2-4-2------2-2h4-2----|
G|-4------4-------------4-|
D|----------4-------------|
A|------------------------|
thats it, its a real easy song, have fun
Comments