Screeching Weasel - This Buds For Me Chords & Tabs

 

This Buds For Me Chords & Tabs

Screeching Weasel Chords & Tabs

Version: 1 Type: Tab 0 ratings
1 star 2 stars 3 stars 4 stars 5 stars
comments

This Buds For Me Tab

   
Screeching Weasel - This Bud's For Me
Submitted By: Chris
EMail: cwsmith@together.net
Album:Kill the Musicians
Track:8
Guitar I-Jughead
Guitar II-Ben Weasel

Legend:
x-mute
Pm-palm mute
h-hammer on
p-pull off
~-let ring
()-ghost note
b-bend
r-begin to release bend

Note:This is the complete version of the song including
a rough version of the solo. Enjoy!

0:00

Intro/Chorus/Bridge:
Gtr. II
     A5           A5           A5           F5  D5
e-----------------------------------------------------|
b-----------------------------------------------------|
g--------------------x-x-xxxx-------------10-10-7-7---|
D---7-7----------7-7-x-x-xxxx-7-7---------10-10-7-7---|
A---7-7----------7-7-x-x-xxxx-7-7---------8--8--5-5---|
E---5-5----------5-5----------5-5---------------------|

Gtr. I
    A5           A5          A5             F5   D5
e-----------------------------------------------------|
b-----------------------------------------------------|
g-----------------------------------------10-10-7-7---|
D---7-7-x-x-xxxx-7-7---------7-7-x-x-xxxx-10-10-7-7---|
A---7-7-x-x-xxxx-7-7---------7-7-x-x-xxxx-8--8--5-5---|
E---5-5-x-x-xxxx-5-5---------5-5-x-x-xxxx-------------|

Intro/Chorus x2

0:08

Verse:
Gtr. I & II
           A5            F5        D5
e-----------------------------------------|
b-----------------------------------------|
g-------------------10-10-10-10-7-7-7-7---|
D---7-7-7-7-7-7-7-7-10-10-10-10-7-7-7-7---|
A---7-7-7-7-7-7-7-7-8--8--8--8--5-5-5-5---|
E---5-5-5-5-5-5-5-5-----------------------|

Verse x4

Chorus x2

Verse x4

Chorus x2

0:46
[ Tab from: http://www.guitartabs.cc/tabs/s/screeching_weasel/this_buds_for_me_tab.html ]
Gtr. II
Interlude:
                 A5                               F5
e------------------------------------------------------------------|
b------------------------------------------------------------------|
g------------------------------------------------------------------|
D---7-7--7--7-7--7-7-7-7--7-7--7----3-3--3--3-3--3-3-3-3--3-3--3---|
A---7-7--7--7-7--7-7-7-7--7-7--7----3-3--3--3-3--3-3-3-3--3-3--3---|
E---5-5--5--5-5--5-5-5-5--5-5--5----1-1--1--1-1--1-1-1-1--1-1--1---|
Pm-------------|                   |------------|    

Interlude x4

Gtr. I
Fill:

e----------------------------|
b----------------------------|
g----------------------------|
D---5h7~--7-5-7~--10-9-7-5---|
A----------------------------|
E----------------------------|

Fill x2

1:08

Solo:
Gtr. I

e------------------------------------------------------|
b-------------------------------------0----------------|
g---5h7~--9~--7-9-7-5----7p5-----5~----55-55-----------|
D----------------------7------5~--------------7-7777---|
A------------------------------------------------------|
E------------------------------------------------------|

e------------------------------------------------------|
b------------------------------------------------------|
g------------------------------------------------------|
D---7-7777---------------------------------------------|
A-----------------------------------------------7-7----|
E---------(8)\--(0)h5-8-5-8-5(0)h8-10-8-10(0)h5--5-5---|

e-------------------------------------------|
b-------------------------------------------|
g-------------------------------------------|
D-----------------5-5-5------7-7-7-7-7-7----| 1:28
A---7-7-7-7---------------------------------|
E----5-5-5-5-(0)h5-5-5-5(0)h5-5-5-5-5-5-5---|

e----------------------------------------------------|
b----------------------------------------------------|
g---5h7-9-12-9-7-5--9-12---12b121212r121212--7-5-----|
D-----------------7-----12-12b121212r------------7---|
A----------------------------------------------------|
E----------------------------------------------------|

e---------------|
b---------------|
g---7-5b--------|
D--------7~~~---|
A---------------|
E---------------|


Bridge x1

Verse x4

Chorus x2

End On:
   A5
e-------|
b-------|
g-------|
D---7---|
A---7---|
E---5---|
Comments