Screeching Weasel - This Aint Hawaii Chords & Tabs

 

This Aint Hawaii Chords & Tabs

Screeching Weasel Chords & Tabs

Version: 1 Type: Tab 0 ratings
1 star 2 stars 3 stars 4 stars 5 stars
comments

This Aint Hawaii Tab

TAbbed By Matt Shepard
song: This aint hawaii
[ Tab from: http://www.guitartabs.cc/tabs/s/screeching_weasel/this_aint_hawaii_tab.html ]
Riff 1:  
                    ^ this chord is either struck once or several times 
depending on what part of the song it                       is 
|------------------------| 
|------------------------| 
|---12--------11---9-----| 
|---12---12---11---9-----| 
|---10---12---9----7-----| 
|--------10--------------| 
                    ^ 
Riff2 
|------------------------------| 
|------------------------------| 
|---9---9---12---12---12---12--| 
|---9---9---12---12---12---12--| 
|---7---7---10---10---10---10--| 
|------------------------------| 

Riff 3 
|----------------------------------| 
|----------------------------------| 
|---9---9---14--------16---14---9--| 
|---9---9---14---14---16---14---9--| 
|---7---7---12---14---14---12---7--| 
|----------------12----------------|
Comments