Screeching Weasel - This Aint Hawaii Chords & Tabs

 

This Aint Hawaii Chords & Tabs

Screeching Weasel Chords & Tabs

Version: 1 Type: Bass Tab 0 ratings
1 star 2 stars 3 stars 4 stars 5 stars
comments

This Aint Hawaii Bass Tab

-------------------------------------------------------------------------------
			     This aint Hawaii - Screeching Weasel
-------------------------------------------------------------------------------

By: Christopher Taylor

Intro and chorus
G|---------------------------------------------------------------------------|
D|---------------------------------------------------------------------------|
A|-10----9--7-7-7-7----------------------------------------------------------|
E|----10---------------------------------------------------------------------|
[ Tab from: http://www.guitartabs.cc/tabs/s/screeching_weasel/this_aint_hawaii_btab.html ]
verse
G|---------------------------------------------------------------------------|
D|---------------------------------------------------------------------------|
A|-10----9-7-----------------------------------------------------------------|
E|----10---------------------------------------------------------------------|

wipe out part
G|---------------------------------------------------------------------------|
D|---------------------------------------------------------------------------|
A|--7---12--------14---12-----7-7-7777---------------------------------------|
E|-----------12--------------------------------------------------------------|

Good song easy and fun. enjoy

===============================================================================

Comments