Screeching Weasel - Teenage Freakshow Chords & Tabs

 

Teenage Freakshow Chords & Tabs

Screeching Weasel Chords & Tabs

Version: 1 Type: Tab 0 ratings
1 star 2 stars 3 stars 4 stars 5 stars
comments

Teenage Freakshow Tab

Screeching Weasel
Teenage Freakshow
from My Brain Hurts
Creator: Unknown :(

(Riff 1) Opening Riff/Verse:

    -------------------------|
    -------------------------|
    --5----------------------|
    --5-----5-----7-----5----|
    --3-----5-----7-----5----|
    --------3-----5-----3----|

(Riff 2) Chorus:

    --------------------------------------------------|
    --------------------------------------------------|
    ------------------------------------------------5-|
    --5-----7-----5-----7-----5-----7-----5-----7---5-|
    --5-----7-----5-----7-----5-----7-----5-----7---3-|
    --3-----5-----3-----5-----3-----5-----3-----5-----|

(Riff 3) After 2nd Chorus:
[ Tab from: http://www.guitartabs.cc/tabs/s/screeching_weasel/teenage_freakshow_tab.html ]
    --------------------------------------|
    --------------------------------------|
    --------------7-------7-------7-------|
    --5-----7-----7-------7---7---7--7--5-|
    --5-----7-----5-------5---7---5--7--5-|
    --3-----5-----------------5------5--3-|

(Riff 4) After 3rd Verse and 3rd Chorus:

	-----------------------|
	-----------------------|
	--7--------------------|
	--7-----7-----5-----7--|
	--5-----7-----5-----7--|
	--------5-----3-----5--|

Song Structure:

	(Riff 1)     x4
	(Riff 2)     x1
	(Riff 1)     x2
	(Riff 2)     x1
	(Riff 3)     x4
	(Riff 1)     x3  (on the fourth time around only play
                         the first two chords then go into Riff 4)
	(Riff 4)      x3
	(Riff 1)      x2
	(Riff 2)      x1
	(Riff 4)      x2
	(Riff 1)      x4

    end on  -----      note: ------|   is played a bunch of times
            -----         ---------|   between some riffs as a fill
            -----         ---------|
             --5--         --5-----|
            --5--         --5------|
            --3--         --3------|
Comments