Screeching Weasel - Supermarket Fantasy Chords & Tabs

 

Supermarket Fantasy Chords & Tabs

Screeching Weasel Chords & Tabs

Version: 3 Type: Bass Tab

Supermarket Fantasy Bass Tab

Verse:
G|----------------------------------------------------------|
D|-----------------------------------10-8-6-6-------8-6-5-5-|
A|---------------3-3-3-3-3-3-3--8-8-8----------6-6-6--------|
E|-4-4-4-4-4-4-4--------------------------------------------|
[ Tab from: http://www.guitartabs.cc/tabs/s/screeching_weasel/supermarket_fantasy_btab_ver_3.html ]
Chorus:
G|--------------------------------------------------|
D|--------------------------------------------------|
A|-4-4-4-4-4-4-------------4-4-4-4-4-4--------------|
E|-------------4-4-4-4-4-4--------------4-4-4-4-4-4-|

G|-------------------------------------------------------|
D|-------------------------------------------------------|
A|-4-4-4-4-4-4-4---------------6-6-6-6-6-6-6-6-6-6-6-6-6-|
E|---------------4-4-4-4-4-4-4---------------------------|

I'm pretty sure this is correct.  Have fun with this awesome song