Screeching Weasel - Stupid Girl Chords & Tabs

 

Stupid Girl Chords & Tabs

Screeching Weasel Chords & Tabs

Version: 1 Type: Tab 0 ratings
1 star 2 stars 3 stars 4 stars 5 stars
comments

Stupid Girl Tab

-------------------------------------------------------------------------------
			  STUPID GIRL - Screeching Weasel
-------------------------------------------------------------------------------

By: Sean and his mom.  phhhtttt@yahoo.com

e|---------------------------------------------------------------------------|
B|---------------------------------------------------------------------------|
G|--------6----8--------6--5--3-----3-------------5--3-----------------------|
D|---6----6----8-----------------6----3-slide->-6----------------------------|
A|---6----4----6-------------------------------------------------------------|
E|---4-----------------------------------------------------------------------|

               x2           x2                   x2
e|---------------------------------------------------------------------------|
B|---------------------------------------------------------------------------|
G|-------6----8-----------8------------6---8---6-----------------------------|
D|--6----6----8-------8---8--------6---6---8---6-----------------------------|
A|--6----4----6-------8---6--------6---4---6---4-----------------------------|
E|--4-----------------6------------4-----------------------------------------|
[ Tab from: http://www.guitartabs.cc/tabs/s/screeching_weasel/stupid_girl_tab.html ]
       p.m.      p.m.      p.m. x2         x2              x2
e|---------------------------------------------------------------------------|
B|---------------------------------------------------------------------------|
G|-----------6----6----8----8-------------8---------6--8--6------------------|
D|--6---6----6----6----8----8----------8--8------6--6--8--6------------------|
A|--6---6----4----4----6----6----------8--6------6--4--6--4------------------|
E|--4---4------------------------------6---------4---------------------------|
                 
                   x1                x4
e|---------------------------------------------------------------------------|
B|---------------------------------------------------------------------------|
G|--------6--8---6-----------------------------------------------------------|
D|-3---6--6--8---6---------6-slide>-8----------------------------------------|
A|-3---6--4--6---4------6--4-slide>-6----------------------------------------|
E|-1---4----------------4----------------------------------------------------|

               x2           x2                   x2
e|---------------------------------------------------------------------------|
B|---------------------------------------------------------------------------|
G|-------6----8-----------8------------6---8---6-----------------------------|
D|--6----6----8-------8---8--------6---6---8---6-----------------------------|
A|--6----4----6-------8---6--------6---4---6---4-----------------------------|
E|--4-----------------6------------4-----------------------------------------|

                 x6 and fades out       
e|---------------------------------------------------------------------------|
B|---------------------------------------------------------------------------|
G|-------6----8--------------------------------------------------------------|
D|--6----6----8--------------------------------------------------------------|
A|--6----4----6--------------------------------------------------------------|
E|--4------------------------------------------------------------------------|
Comments