Screeching Weasel - Speed Of Mutation Chords & Tabs

 

Speed Of Mutation Chords & Tabs

Screeching Weasel Chords & Tabs

Version: 1 Type: Tab 0 ratings
1 star 2 stars 3 stars 4 stars 5 stars
comments

Speed Of Mutation Tab

   
-------------------------------------------------------------------------------
                       SPEED OF MUTATION - Screeching Weasel
-------------------------------------------------------------------------------

tab:   Rob

Intro:
p.m.
e-------------     e---|
b-------------     b---|
g-------------     g-4-|
d---1-1-1-2-4-     d-4-|
a-2-----------     a-2-|
E------------- x4  E---| x16

Verse:
p.m.------------------------------|
e---------------------------------|
b---------------------------------|
g-4-4-4-4-------------------------|
d-4-4-4-4-4-4-4-4-6-6-6-6-2-2-2-2-|
a-2-2-2-2-4-4-4-4-6-6-6-6-2-2-2-2-|
E---------2-2-2-2-4-4-4-4-O-O-O-O-|  (x6)
[ Tab from: http://www.guitartabs.cc/tabs/s/screeching_weasel/speed_of_mutation_tab.html ]
Pre-Chorus:
e---------------------------------------------------------|
b---------------------------------------------------------|
g-6-6-6-6-6-6-6-------------------------------------------|
d-6-6-6-6-6-6-6-6-6-6-6-6-6-6-8-8-8-8-8-8-8-4-4-4-4-4-4-4-|
a-4-4-4-4-4-4-4-6-6-6-6-6-6-6-8-8-8-8-8-8-8-4-4-4-4-4-4-4-|
E---------------4-4-4-4-4-4-4-6-6-6-6-6-6-6-2-2-2-2-2-2-2-| (x1)

Chorus:
e---------------------------------|
b---------------------------------|
g-6-6-6-6-------------------------|
d-6-6-6-6-6-6-6-6-8-8-8-8-4-4-4-4-|
a-4-4-4-4-6-6-6-6-8-8-8-8-4-4-4-4-|
E---------4-4-4-4-6-6-6-6-2-2-2-2-| (x4)

Verse

Pre-chorus

Chorus

Bridge:
e-------------    e------------|
b-------------    b------------|
g-------------    g------------|
d---1-1-1-2-4-    d--6-6-6-4-3-|
a-2-----------    a-4----------|
E------------- x4 E------------| x4

Verse (x8)

Pre-Chorus (x4)

Chorus (x12)

---------------
Comments