Screeching Weasel - Psychiatrist Chords & Tabs

 

Psychiatrist Chords & Tabs

Screeching Weasel Chords & Tabs

Version: 1 Type: Bass Tab 0 ratings
1 star 2 stars 3 stars 4 stars 5 stars
comments

Psychiatrist Bass Tab

-------------------------------------------------------------------------------
	              phyciatrist - screeching weasel
-------------------------------------------------------------------------------

By:christopher taylor
[ Tab from: http://www.guitartabs.cc/tabs/s/screeching_weasel/psychiatrist_btab.html ]
intro
G|---------------------------------------------------------------------------|
D|---------------------------------------------------------------------------|
A|---------5->---------------------------------------------------------------|
E|----7->--------------------------------------------------------------------|
verse
G|---------------------------------------------------------------------------|
D|---------------------------------------------------------------------------|
A|---------5->---------------------------------------------------------------|
E|----7->-------5->----------------------------------------------------------|
chorus
G|---------------------------------------------------------------------------|
D|---------------------------------------------------------------------------|
A|----7-7-7-7-5-5-5-5--------------------------------------------------------|
E|--------------------5-7-7-7-5-7-7-7----------------------------------------|

===============================================================================

Comments