Screeching Weasel - Now I Wanna Sniff Some Glue Chords & Tabs

 

Now I Wanna Sniff Some Glue Chords & Tabs

Screeching Weasel Chords & Tabs

Version: 1 Type: Tab 0 ratings
1 star 2 stars 3 stars 4 stars 5 stars
comments

Now I Wanna Sniff Some Glue Tab

   
SCREECHING WEASEL
Now I Wanna Sniff Some Glue Tab - Ramones Cover

TABBED BY ramones1314
RIFF 1
e------------------------|
B------------------------|
G------------------------|
D-7-7-7-7-7--5-5-5-5-5-5-|
A-7-7-7-7-7--5-5-5-5-5-5-|
E-5-5-5-5-5--3-3-3-3-3-3-|

riff 2
e------------|
B------------|
G------------|
D-7--5--3--2-|
A-7--5--3--2-|
E-5--3--1--0-|

PAUSE

SOLO
e---------------------------|
B---------------------------|
G-------------------------0-|
D----------------------0h2--|
A-2-2-2-2-2-2-2-2-2-2-2-----|
E-0-0-0-0-0-0-0-0-0-0-0-----|
[ Tab from: http://www.guitartabs.cc/tabs/s/screeching_weasel/now_i_wanna_sniff_some_glue_tab.html ]
RIFF 3
e---------------------------------------------------------|
B---------------------------------------------------------|
G---------------------------------------------------------|
D-7-7-7-7-7-7-7-5-5-5-5-5-5-5-3-3-3-3-3-3-3-2-2-2-2-2-2-2-|
A-7-7-7-7-7-7-7-5-5-5-5-5-5-5-3-3-3-3-3-3-3-2-2-2-2-2-2-2-|
E-5-5-5-5-5-5-5-3-3-3-3-3-3-3-1-1-1-1-1-1-1-0-0-0-0-0-0-0-|

RIFF 4
e-------------------------------------------------|
B-------------------------------------------------|
G-------------------------------------------------|
D-7-7-7-7-7-7-7-5-5-5-5-5-5-5-5-3-3-3-3-3-3-3-3-2-|
A-7-7-7-7-7-7-7-5-5-5-5-5-5-5-5-3-3-3-3-3-3-3-3-2-|
E-5-5-5-5-5-5-5-3-3-3-3-3-3-3-3-1-1-1-1-1-1-1-1-0-|

ORDER
RIFF1 4X
RIFF2
PAUSE
RIFF2
SOLO  2X
RIFF2
RIFF1 8X
RIFF3 3X
RIFF4
Comments